Guitar Tabs, Chords and Lyrics


Leaving   Unknown



    INTRO AND VERSE

    e---0-----0 (7)-0-----0-----0---------------------------------|
    b---0-----0-----0-----0(7)--0---------------------------------|
    g---0-----0-----0-----0-----0---------------------------------|
    d---9-----7-----5-----7-----9---------------------------------|
    a---7-----5-----3-----5-----7---------------------------------|
    e-------------------------------------------------------------|

    PRE CHORUS

    e-0--(3)-0--(3)-----(3)----------------------------------------------|
    b--1------1-----1----------------------------------------------------|
    g-- 2------0------0--------------------------------------------------|
    d----3------2------0-------------------------------------------------|
    a------------3------2------------------------------------------------|


Important: The song above is NOT stored on the Chordie server. The original song is hosted at www.guitaretab.com. Chordie works as a search engine and provides on-the-fly formatting. Chordie does not index songs against artists'/composers' will. To remove this song please click here.

This song is displayed as text-only. Transposing and tuning is only available for chordpro-songs.

Login - add to songbook

Rating click stars to rate

Layout
Accuracy

SHARE PAGE  




You need to log in to post comments