Guitar Tabs, Chords and Lyrics


Machination   Nothingface



Band: Nothingface
Song: Machination
Album: Skeletons
Tuning: CGCFAD

Intro
D|------------------|-------------------------|
A|------------------|-------------------------|
F|-----5----------5-|-------------------------|
C|---3----------3---|-3-3-3-3-3-3-2-2-2-2-2-2-|
G|-1----------4-----|-3-3-3-3-3-3-2-2-2-2-2-2-|
C|----------4-------|-3-3-3-3-3-3-2-2-2-2-2-2-|
                      \____PM___/

Verse
D|-------------------------|-------------------------|-------------------------|
A|-------------------------|-------------------------|-------------------------|
F|-4-4-4-4-4-4-3-3-3-3-3-3-|-------------------------|-------------------------|
C|-3-3-3-3-3-3-2-2-2-2-2-2-|-------------------------|-------------------------|
G|-2-2-2-2-2-2-1-1-1-1-1-1-|-------------------------|-------------------------|
C|-------------------------|-3-3-3-2-2-2-3-2-0-2-3-5-|-3-3-3-2-2-2-3-2-0-2-1-0-|

Chorus  PM
D|-------------------------------------------------|
A|-------------------------------------------------|
F|-------9-----------9-----------8-----------8-----|
C|---6-9---9-6---6-9---9-6---5-8---8-5---5-8---8-5-|
G|-7-----------7-----------6-----------6-----------|
C|-------------------------------------------------|

Fill 1
D|------------------------------|
A|------------------------------|
F|------------------------------|
C|-5-5-5--6\5-6\5--5-5-5--6\5-6-|
G|-5-5-5--6\5-6\5--5-5-5--6\5-6-|
C|-5-5-5--6\5-6\5--5-5-5--6\5-6-|

Fill 2 (after 2nd Chorus)
D|--------------------------|----------------------|
A|--------------------------|----------------------|
F|--------------------------|-9~--8~--9~--10-7-9-5-|
C|---7-10---3-6---6-9---2-5-|----------------------|
G|-8------4-----7-----3-----|----------------------|
C|--------------------------|----------------------|

Bridge  PM
D|-------------------------------------------------|
A|-------------------------------------------------|
F|-------------------------------------------------|
C|-0-0-0-0-0-0-2-2-2-3-3-3-2-2-2-2-2-2-2-2-2-3-3-3-|
G|-0-0-0-0-0-0-2-2-2-3-3-3-2-2-2-2-2-2-2-2-2-3-3-3-|
C|-0-0-0-0-0-0-2-2-2-3-3-3-2-2-2-2-2-2-2-2-2-3-3-3-|
   \____grad_release_____/ \____grad_release_____/

D|-------------------------------------------------|
A|-------------------------------------------------|
F|-------------------------------------------------|
C|-8-8-8-8-8-8-5-5-5-8-8-8-7-7-7-7-7-7-7-7-7-7-7-7-|
G|-8-8-8-8-8-8-5-5-5-8-8-8-7-7-7-7-7-7-7-7-7-7-7-7-|
C|-8-8-8-8-8-8-5-5-5-8-8-8-7-7-7-7-7-7-7-7-7-7-7-7-|

Outro
D|-------------------------|
A|-------------------------|
F|-------------------------|
C|-3-3-3-2-2-2-2-2-2-2-2-2-|
G|-3-3-3-2-2-2-2-2-2-2-2-2-|
C|-3-3-3-2-2-2-2-2-2-2-2-2-|

D|-------------------------------------------------------|
A|-------------------------------------------------------|
F|-------------------------------------------------------|
C|-3-3-3-2-2-2-2-2-6-6-5-5-3-3-3-2-2-2-2-2-6-6-5-5-5-4-4-|
G|-3-3-3-2-2-2-2-2-6-6-5-5-3-3-3-2-2-2-2-2-6-6-5-5-5-4-4-|
C|-3-3-3-2-2-2-2-2-6-6-5-5-3-3-3-2-2-2-2-2-6-6-5-5-5-4-4-|

D|-------------------------------------------------------|
A|-------------------------------------------------------|
F|-------------------------------------------------------|
C|-9-9-9-8-8-8-8-8-6-6-5-5-9-9-9-8-8-8-8-8-6-6-5-5-5-4-4-|
G|-8-8-8-7-7-7-7-7-5-5-4-4-8-8-8-7-7-7-7-7-5-5-4-4-4-3-3-|
C|-9-9-9-8-8-8-8-8-6-6-5-5-9-9-9-8-8-8-8-8-6-6-5-5-5-4-4-|

D|-----------------------------|
A|-----------------------------|
F|-4-4-4-----------------------|
C|-3-3-3-2-2-2-2-2-2-2-2-2-1p0-|
G|-2-2-2-2-2-2-2-2-2-2-2-2-1p0-|
C|-------2-2-2-2-2-2-2-2-2-1p0-|


Important: The song above is NOT stored on the Chordie server. The original song is hosted at www.guitaretab.com. Chordie works as a search engine and provides on-the-fly formatting. Chordie does not index songs against artists'/composers' will. To remove this song please click here.

This song is displayed as text-only. Transposing and tuning is only available for chordpro-songs.

Login - add to songbook

Rating click stars to rate

Layout
Accuracy

SHARE PAGE  




You need to log in to post comments