Chordie logo


Within My Flesh   Novembers Doom



Its me brendan again. Hrers another for all ya.


--------------------------------------------|
----------0h1-1------1-0-----0-1------------|
--------2----------------2------------------|
------2----------2-2-------2----------------|
----0---------------------------------------|
--------------------------------------------|


---------0----------------------------------------|
--3-1-3--0---0------------------------------------|
--2-2-2--0-----0----------------------------------|
--2-2-2--2-------2--------------------------------|
--0-0-0--2----------------------------------------|


Important: The song above is NOT stored on the Chordie server. The original song is hosted at www.guitaretab.com. Chordie works as a search engine and provides on-the-fly formatting. Chordie does not index songs against artists/composers will. To remove this song please click here.

This song is displayed as text-only. Transposing and tuning is only available for chordpro-songs.

Login - add to songbook

Rating click stars to rate

Layout
Accuracy

SHARE PAGE  




You need to log in to post comments