Guitar Tabs, Chords and Lyrics


Nagisa Ni Te   Number Girl



Main Riff

There are slight variations of which strings are hit throughout the song, but this 
give you a feel.
e|--------------------------------|
B|--------------------------------|
G|-----0-----3-3-0----------------|
D|--2-----2--------3-0------------|
A|--3----------------------0-2----|
E|-----------------------3-----3--|

After the main riff, three G chords are played. Listen to the song for timing.

Starting at around 0:18, the rhythm guitar plays this over the main riff. More 
over which strings are hit, but this is the main idea.
e|----------------------------------|
B|--5--5--5--6--5--6--5---3--3--3---|
G|--5--5--5--5--5--5--5---4--4--4---|
D|--5--5--5--5--5--5--5---5--5--5---|
A|----------------------------------|
E|----------------------------------|

At 0:32, the chorus appears for the first time. Again, more variations, but this sounds okay.
e|--------1---------------3----------|
B|------1---1-----------3---3--------|
G|----2------2--------4-------4------|
D|---3--------------5----------------|
A|-----------------------------------|


Important: The song above is NOT stored on the Chordie server. The original song is hosted at www.guitaretab.com. Chordie works as a search engine and provides on-the-fly formatting. Chordie does not index songs against artists/composers will. To remove this song please click here.

This song is displayed as text-only. Transposing and tuning is only available for chordpro-songs.

Login - add to songbook

Rating click stars to rate

Layout
Accuracy

SHARE PAGE  




You need to log in to post comments