Guitar Tabs, Chords and Lyrics


La Prision  Nxzero

e|--------33--------33-----------------66-------66----------------|


B|-33-44-----33-44------33-44---33-44-----33-44----33-44----------|


G|----------------------------------------------------------------|

D|----------------------------------------------------------------|
A|----------------------------------------------------------------|
E|----------------------------------------------------------------|
e|--------33--------33-----------6---4---3h4h3-3h4h3--------------|
B|-33-44-----33-44------33-44---3---3---3-------------4-----------|
G|----------------------------------------------------------------|
D|----------------------------------------------------------------|
A|----------------------------------------------------------------|
E|----------------------------------------------------------------|
e|----------333-444444--------|
B|--333-444-------------------|
G|----------------------------|
D|----------------------------|
A|----------------------------|
E|----------------------------|
[G#5]  Ontem, es[C5]tava bem s[B5]em você aq[D#5]ui  [D#5]      [D5]
[G#5] Eu sei, tudo mu[C5]dou,
  O ódio,seu des[B5]caso e eu també[D#5]m   [D#5]      [D5]
Repete Intro(2x)

[G#5]   Era bem mais [C5]fácil
   Di[B5]zer em poucas pal[D#5]avras e escon[D#5]der   [D5]
  [B5] E se meu sangue te mach[C#5]ucar,se meu orgulho te aprisio[B5]nar
   Temos algo mais para per[C#5]der   [D5]

[G#5]  É como uma pr[C5]isão
  Em que a única [D5]sa...[D#5]ída é o seu perd[Bb5]ão   [D5]     [D#5]
[G#5]  Sem explicaç[C5]ão
  Vivendo uma m[D5]en...[D#5]tira sem raz[Bb5]ão     [D5]     [D#5]
Riff 3

e|-------------------------------------------------------------------------|
B|-------------------------------------------------------------------------|
G|-8--8--8--10--8--8--8--10-8--8--8--10--8--12---13------------------------|
D|-8--X--8--x---8--x--8--x--8--x--8--x---8--xx---xx------------------------|
A|-6--6--6--8---6--6--6--8--6--6--6--8---6--10---11------------------------|
E|-6-----6------6-----6-----6-----6------6---------------------------------|


[G#5]  Hoje me [C5]convenci que a [B5]vida contin[D#5]ua    [D#5]      [D5]
[G#5]   E talvez até con[C5]siga correr atrás do t[B5]empo que pe[D#5]rdi   [D#5]      [D5]
[B5]  E se meu sangue te machu[C#5]car,se meu orgulho te aprisio[B5]nar
  Temos algo mais para per[C#5]der     [D5]

[B5] uooOooOOOow[C#5]ww
[B5]uoOoOOOOoooO[C#5]owww[D5]
[G#5]  É como uma pr[C5]isão
  Em que a única [D5]sa...[D#5]ída é o seu perd[Bb5]ão   [D5]     [D#5]
[G#5]  Sem explicaç[C5]ão
  Vivendo uma m[D5]en...[D#5]tira sem raz[Bb5]ão     [D5]     [D#5]
[G#5]  É como uma pr[C5]isão
  Em que a única [D5]sa...[D#5]ída é o seu perd[Bb5]ão   [D5]     [D#5]
[G#5]  Sem explicaç[C5]ão
  Vivendo uma m[D5]en...[D#5]tira sem raz[Bb5]ão     [D5]     [D#5]
e|-----------------------------|
B|-----------------------------|
G|-888-777----777/888----------|
D|-xxx-xxx----xxx/xxx----------|
A|-666-555----555/666----------|
E|-----------------------------|

Important: The song above is NOT stored on the Chordie server. The original song is hosted at www.guitaretab.com. Chordie works as a search engine and provides on-the-fly formatting. Chordie does not index songs against artists'/composers' will. To remove this song please click here.

Text color:
Chord color:
Chord grids: 
Font size:    
Page size: 

B5 Bb5 C#5 C5 D#5 D5 G#5
variations - click chord images

Login - add to songbook

Transpose chords

Tuning

Rating click stars to rate

Layout
Accuracy

SHARE PAGE  




You need to log in to post comments