Umagang Kay Ganda

Nyoy Volante

 AGAG
 Halika na pumikit limutin ang problema
 AGA-G
 Hihintayin ang umaga
 ADAG
 Magpahinga, panaginip ang ikaliligaya
 AGA-G
 Darating din anumaga

Chorus:

 Bm7C#m7
Basta't tayo'y magkasama
 Bm7EA
 Laging mayroong umagang kay ganda
 BmC#m7
Pagsikat ng araw, May dalang liwanag
 C#F#m-D
 Sa ating pangarap, WooH. ..
A – D – A - G
Haharapin natin…

Verse 2: (DO SAME CHORDS IN THE VERSE)

Simple lang, kasama ka naman
Kung ayaw nila, sa akin ok lang
Kung di mo makuha, sa tingin . .
Idaan mo sa taas, kung ayaw pa rin

Verse 3:

 AD
 Gumising na (gumising na)
 AG
 Araw ng pag-asa'y narito na
 AGAD
 Dumating din, haharapin natin

INTERLUDE:
solo:
e-------10-------------10-------10--8--7--8--7------10s12----10--|
B-----8----8---------8---7---------------------8----------12-----|
G---9--------------9-----------------------------7---------------|
D----------------------------------------------------------------|
A----------------------------------------------------------------|
E----------------------------------------------------------------|
e-------10-------------10------------------------------------------|
B-----8----8---------8---7--------12-12-10--8--8s12----------------|
G-8h10-----------8h10-------------------------9--------------------|
D------------------------------------------------------------------|
A------------------------------------------------------------------|
E------------------------------------------------------------------|


Repeat chorus

A Bm Bm7 C# C#m7 D E G
variations - click chord images
Transpose chords:
Tuning:
Cool service:
View: Size:
A  A  A
Rating:
Layout:
  • Currently 2.7/5 Stars.
  • 1
  • 2
  • 3
  • 4
  • 5
 
Accuracy:
  • Currently 3.1/5 Stars.
  • 1
  • 2
  • 3
  • 4
  • 5
 
click stars to rate
Chordie recommends:
Learn to play guitar with video-based, online guitar lessons at JamPlay.com
Songbook:
Login to add this song to your songbook
Support the artist
Preview/buy this song
MSN Music
Why this non-profit ad?

 
login to add comments/video/corrections