Guitar Tabs, Chords and Lyrics


I Wanna Live In A Dream In My Record Machine  Oasis

[F]C [133211](x32010)
E (022100)
D/F♯ (2x0230)

Intro:
A5 |G6/A A6 (x2)

Verse 1:
[A5]Help me,[G6/A] defy the l[A6]ight the shining on me
To get back what they've taken from me
With a little fire where its cold

Verse 2:
Show me, the path that leads to all the glory
The words that tell a sacred story
With a little fire where it's cold

...G D

Chorus:
I wanna live in a d[A]ream in my record ma[G]chi[D]ne
I wanna picture the world and everyone inside my mouth
Cos all the money i waste, is it a matter of taste?
I wanna picture the world and you can't make me spit it out

A |G/A D/A (X2)

Verse 3:
[A]Take me,[G/A] back from the d[D/A]arkness where they
Sent me, give hope to places to where they can't be
With a little fire where it's cold

...G D

Chorus:
I wanna live in a d[A]ream in my record ma[G]chi[D]ne
I wanna picture the world n everyone inside my mouth
Cos all the money i waste, is it a matter of taste?
I wanna picture the world and you can't make me spit it out

Break:
  [A]                         [A7]                                      
E|--5---5---5---5-|----------------|
B|----------------|--------8---8---|
G|6---6---7---7---|9---9---9---9---|
D|----------------|--7---7---7---7-|
A|----------------|----------------|
E|----------------|----------------|


Fmaj7 G6 |C* D/A (x2)
F G |C D
F |E G

Solo:
A G D/F♯ F
E|---------------5--------|------------------------|
B|----------------5-------|------------------------|
G|7b9----m----------7b8r-5|7-5---------------------|
D|------------------------|---7--------------------|
A|------------------------|------------------------|
E|------------------------|----------5s1-----------|

  [A]            [G]             [C]            [E]                          
E|---------------5--------|------------------10----|
B|----------------5-------|---------------------9--|
G|7b9----m----------7b8r-5|---------------9--------|
D|------------------------|7---------7s9-----------|
A|------------------------|------------------------|
E|------------------------|------------------------|

A G D/F♯ F
E|0--0--0--0--0--0--0--0--|0--0--0--0--0--0--0--0--|
B|10-10-10-10-8--8--8--8--|7--7--7--7--6--6--6--6--|
G|------------------------|------------------------|
D|------------------------|------------------------|
A|------------------------|------------------------|
E|------------------------|------------------------|

  [C]                         [E]                         [F]            
E|------------------------|0--0--0--0--0--0--0--0--|0--0--
B|5--5--5--5--5--5--5--5s-|9--9--9--9--9--9--9--9s-|10-10-
G|------------------------|------------------------|------
D|------------------------|------------------------|------
A|------------------------|------------------------|------
E|------------------------|------------------------|------


Chorus 2:
[F]You can't give me a r[G]eason I want [C]me want to sh[D]ine
You can't give me the feelings cos they're already mine
You get one in a million and if the sun won't rise
On my s[F]oul, then I'll g[E]o

Outro:
Bass:
G|------------------------|-------------12---------|
D|------------------------|--------12s14--14s12-10-|
A|12----------------------|------------------------|
E|------------------------|------------------------|


A |G/A D/A (x3)
A |G/A
D |F
G |A


(Tabbed by live4ever2008)

Important: The song above is NOT stored on the Chordie server. The original song is hosted at www.guitaretab.com. Chordie works as a search engine and provides on-the-fly formatting. Chordie does not index songs against artists'/composers' will. To remove this song please click here.

Text color:
Chord color:
Chord grids: 
Font size:    
Page size: 

A A5 A6 A7 C D E F G G6/A
variations - click chord images

Login - add to songbook

Transpose chords

Tuning

Rating click stars to rate

Layout
Accuracy

SHARE PAGE  




You need to log in to post comments