Guitar Tabs, Chords and Lyrics


Im Outta Time  Oasis

  [Em]                 [Cmaj7]                                        
E|0-------0-------|0-------0-------|
B|-----0-------0--|-----0-------0--|
G|---0--0----0--0-|---0--0----0--0-|
D|--2-------2----=|--2-------2-----|
A|2-------2-------|3-------3-------|
E|----------------|----------------|

  [Em6]                 [Cmaj7]                                        
E|0-------0-------|0-------0-------|
B|-----0-------0--|-----0-------0--|
G|---0--0----0--0-|---0--0----0--0-|
D|--2-------2-----|--2-------2-----|
A|4-------4-------|3-------3-------|
E|----------------|----------------|    X2


Verse 1:
[Em]Here's a song
It reminds me of when [E7sus4]we were young
Looking back at all the t[Am]hings we've done
You gotta keep on k[C]eepin' on

Out to sea
Is the only place I am asleep
Can get myself some piece of mind
You know it's getting hard to fly

Chorus:
[G]If I'm to fall
[Bm/F#]Would you be there to applaud
Or [Em]would you hide behind the law [Em7]
Because If I am to [Am]go
In my heart you g[C]row
And that's where you be[G]long

(Bass Riff)
G|----------------|----------------|
D|----------------|----------------|
A|------------5---|7---------------|
E|----3---5s7-----|----------------|


Guitar Solo:
E|------------------------|------------------------|
B|15b(17)-----15----------|------------------------|
G|------------------------|14-16----14----12-------|
D|------------------------|------------------14----|
A|------------------------|------------------------|
E|------------------------|------------------------|    X4


Chorus:
If I'm to fall
Would you be there to applaud
Or would you hide behind the law
Because If I am to go
In my heart you grow
And that's where you belong

If I'm to fall
Would you be there to applaud
Or would you hide behind the law
Because If I am to go
In my heart you grow
And that's where you belong

Outro:
Yes [G]I'm out of time
I'm out of time [Bm/F#]
[Em]I'm out of time
[Am]I'm out of time
[C]I'm out of time

G | Bm/F#
Em |
Am |
C | Repeat & fade

Important: The song above is NOT stored on the Chordie server. The original song is hosted at www.guitaretab.com. Chordie works as a search engine and provides on-the-fly formatting. Chordie does not index songs against artists'/composers' will. To remove this song please click here.

Text color:
Chord color:
Chord grids: 
Font size:    
Page size: 

Am Bm/F# C Cmaj7 E7sus4 Em Em6 Em7 G
variations - click chord images

Login - add to songbook

Transpose chords

Tuning

Rating click stars to rate

Layout
Accuracy

SHARE PAGE  




You need to log in to post comments