Guitar Tabs, Chords and Lyrics


Get Off Your High Horse Lady  Oasis

Get off your h[Dm9]igh horse lady, I dont need a ride tonight.

E|------------|------------------------|
B|------------|------------------------|
G|------------|------------------------|
D|---------3-0|------------------------|
A|------3-0---|------------------------|
D|------------|------------------------|

Get off your high horse lady, I dont need a ride tonight.
E|------------|------------------------|
B|------------|------------------------|
G|------------|------------------------|
D|------3-0--0|------------------------|
A|----------3-|------------------------|
D|------------|------------------------|             


L[C]ay do[C/B]wn. [C]

Dm9 |


Verse 2:

I hear your soul song singing from a fire in the sky.
I hear your soul song
from a fire in the sky.

R[C]ain d[G6/B]own.&[G6/F]#8232;[Dm9]
R[C]ain d[G6/B]own. [G6/F]

Dm9 |

Instrumental:
Dm9 |
|
Dm9/G |
Dm9 |
C |G6/B G6/F
Dm9 |
C |G6/B G6/F
Dm9 |

Verse 3:
Dm9

Get off your high horse lady, I dont need a ride tonight.

Get off your h[Dm9/G]igh horse lady, I dont need a r[Dm9]ide tonight.

L[C]ay do[G6/B]wn.&#[G6/F]8232; [Dm9]
L[C]ay do[G6/B]wn.  [G6/F]

Outro: (Piano)
  [Dm9]                                                                                       
E|10----------8---|----------------|
B|----------------|10--------------|
G|----------------|----------------|
D|----------------|----------------|
A|----------------|----------------|
D|----------------|----------------|    X2
E|10----------8---|------------8---|--------|
B|----------------|10--------------|10------|
G|----------------|----------------|--------|
D|----------------|----------------|--------|
A|----------------|----------------|--------|
D|----------------|----------------|--------|				


Important: The song above is NOT stored on the Chordie server. The original song is hosted at www.guitaretab.com. Chordie works as a search engine and provides on-the-fly formatting. Chordie does not index songs against artists'/composers' will. To remove this song please click here.

Text color:
Chord color:
Chord grids: 
Font size:    
Page size: 

C C/B Dm9 Dm9/G G6/B G6/F
variations - click chord images

Login - add to songbook

Transpose chords

Tuning

Rating click stars to rate

Layout
Accuracy

SHARE PAGE  




You need to log in to post comments