Guitar Tabs, Chords and Lyrics


Digsy Diner Easy  Oasis

[A]What a life it would [C#m]be, If you could [D]come to mine for [E]tea,
I'll pick you [Dsus2]up at half past [E7]three we'll have [D7]lasaaaa[A]gne[Asus4].[A]
[A]I'll Treat you like a[C#m] queen, feed you [D]strawberries and [E]cream,
Then your [Dsus2]friends will all go [E7]green from my la[D7]saaaa[A]gne[Asus4].[A]
Bridge
[F#]These could be the best days of our [A]lives,[Asus4] [A] [Asus4] [A]
[Bm]But I don't think we've been living very [C#m]wise,
[C#m]She said, "Oh, no no no."
And here's the solo:
e|---5---7---9--9--9--10--9--7--7--7--8--7--5--5--5--6--5--0---0--0--2--3--4--4--4
B|--------------------------------------------------------------------------------
G|--------------------------------------------------------------------------------
e|--3--2--3--4--3--2--3--3--3--0------||
B|-----------------------------------:||  Repeat
G|------------------------------------||

And here's the end(just a little A-Asus4-A thingy):
e|--0---0--0-------------------------------------------------------------------------
B|--2---2--2h3--2--2h3--2--2---------------------------------------------------------
G|--2---2--2-------------------------------------------------------------------------
D|--2---2--2-------------------------------------------------------------------------
A|--0---0--0-------------------------------------------------------------------------
E|--x---x--x-------------------------------------------------------------------------

And that's all feel free to write me with comments or questions
James Whittingham

Important: The song above is NOT stored on the Chordie server. The original song is hosted at www.guitaretab.com. Chordie works as a search engine and provides on-the-fly formatting. Chordie does not index songs against artists'/composers' will. To remove this song please click here.

Text color:
Chord color:
Chord grids: 
Font size:    
Page size: 

A Asus4 Bm C#m D D7 Dsus2 E E7 F#
variations - click chord images

Login - add to songbook

Transpose chords

Tuning

Rating click stars to rate

Layout
Accuracy

SHARE PAGE  




You need to log in to post comments