Guitar Tabs, Chords and Lyrics


Shakermaker   Oasis



Oasis - Shakermaker
Album - Definitely Maybe

Tuning - EADGBe

Guitar 1 - Electric Guitar
Guitar 2 - Electric Slide Guitar

 
e|--------------------------------------------0---------------|
B|-------0--------------0--------------0---------0---0--------|
G|-----2----2---------2----2---------2----2--------2-----2----|
D|---1--------1-----1--------1-----1--------1--------------1--|Guitar 1
A|-2--------------2--------------2----------------------------|
E|------------------------------------------------------------|
 |                                                            |
 |                                                            |
 |                                                            |
 |                                                            |
e|------------------------------------------------------------|
B|------------------------16--------------------16------------|
G|---------------------------16--------------------16---------|
D|---------------------16--------16-------------------16\\----|Guitar 2
A|------------------------------------------------------------|
E|------------------------------------------------------------|
  


e|--------------------------------------------0---------------|
B|-------0--------------0--------------0---------0---0--------|
G|---7------7---------7----7---------2----2--------2-----2----|
D|-----6------6-----6--------6\----1--------1--------------1--|Guitar 1
A|-7--------------7--------------2----------------------------|
E|------------------------------------------------------------|
 |                                                            |
 |                                                            |
 |                                                            |
e|------------------------------------------------------------|
B|-9-----------------------9-9~//16~---------16----------16---|
G|---------------------------9~//16~-------------16-----------|
D|---------------------8/9----------------16----------16------|Guitar 2
A|------------------------------------------------------------|
E|------------------------------------------------------------|



                       With Fig.1
                    |-------------|
e|----------------------------------------------------|
B|-2-2-2-2-2-2-2-2--0-0-0-0-0-0-0-0--0-0-0-0-0-0-0-0--|
G|-2-2-2-2-2-2-2-2--1-1-1-1-1-1-1-1--2-2-2-2-2-2-2-2--|
D|-2-2-2-2-2-2-2-2--2-2-2-2-2-2-2-2--1-1-1-1-1-1-1-1--|Guitar 1
A|-0-0-0-0-0-0-0-0--2-2-2-2-2-2-2-2--2-2-2-2-2-2-2-2--|
E|------------------0-0-0-0-0-0-0-0-------------------|_________
 |                                                              |
 |                                                              |
 |                                  Fig. 1                      |
 |                    |----------------------------------|      |
e|--------------------------------------------------------------|
B|-14~---14-----------12------12------12------12----------------|
G|-14~-------14-------14b(16)-14b(16)-14b(16)-14b(16)==r14-14*\-|
D|-14~----------------------------------------------------------|Guitar 2
A|--------------------------------------------------------------|
E|--------------------------------------------------------------|



e|------------------|
B|------------------|
G|-3-3-3-3-3-3-3-3--|
D|-4-4-4-4-4-4-4-4--|Guitar 1
A|-4-4-4-4-4-4-4-4--|
E|-2-2-2-2-2-2-2-2--|


Legend:

b = bend
h = hammer on
p = pull off
/ = slide up fretboard
\ = slide down fretboard
* = trill
~ = hold note


Important: The song above is NOT stored on the Chordie server. The original song is hosted at www.guitaretab.com. Chordie works as a search engine and provides on-the-fly formatting. Chordie does not index songs against artists'/composers' will. To remove this song please click here.

This song is displayed as text-only. Transposing and tuning is only available for chordpro-songs.

Login - add to songbook

Rating click stars to rate

Layout
Accuracy

SHARE PAGE  




You need to log in to post comments