Guitar Tabs, Chords and Lyrics


Step Out  Oasis

[G]E       [355433](022100)
Em (x79987)
A (x02220)
Intro
[-----]The following tab is for the intro as well as all the verses in the song.
Use the following chord progression during the verses, even though it
won't be written out below.
   [D]    [B5]      [C5]       [B5]   [C5]   [B5]   [C5]   [B5]   [D]     [D]    [B5]      [C5]      [B5]   [C5]   [B5]   [C5]   [B5]   [D]        
e-------------------------------------------------------------------------
B--7-------------------------------7----7------------------------------7--
G--7---4--4--5--5---4--5--4--5--4--7----7---4--4--5-5---4--5--4--5--4--7--
D--7---4--4--5--5---4--5--4--5--4--7----7---4--4--5-5---4--5--4--5--4--7--
A--5---2--2--3--3---2--3--2--3--2--5----5---2--2--3-3---2--3--2--3--2--5--
E-------------------------------------------------------------------------

What she said, she said to me take me high on a mountain side
She was dressed up in leopard skin
and her soul would never be denied I met
				e-------------
				B-----------2-
				G-----------2-
				D-----------2-
				A--3--2--1--0-
				E-------------

Pre-chorus
----------

I [A]met her down the disco in a beat up car
She was [C]burning down the [G]road[C] [G]
     e-------------------------------------
     B-------------------------------------
     G--5-------5--------------5--5--------
     D--5-------5--------5--5--5--5--5--5--
     A--3-------3--------5--5--3--3--5--5--
     E-------------------3--3--------3--3--

She [A]looked just like a star with a Jaguar
She [E]needs to lighten her [G]load
Chorus
------

And when [D2]you might[Dsus2]         [Em]think you're gonna [C]cry
     e---5---5-----------
     B---7---7----5------
     G---7---7------7----
     D---7---7--------7--
     A---5---5-----------
     E-------------------

It will be [D2]alright step [Em]out toni[C]ght
[D2]You might [Em]think you're gonna [C]cry
It will be [D2]alright step [Em]out ton[C]ight
Verse 2
-------

What I said I said to her
I'm alive when you walk that way
Can you hear what I can hear?
It's the sound of a brand new day
Pre-chorus
----------

She met me down a disco in a beat up car
I was burning down the road
I can be a star in a Jaguar
I need to lighten my load
Chorus
------

Because you might think you're gonna cry
It will be alright, step out tonight
You might think you're gonna cry
It will be alright, step out tonight
Bridge
------

[G]My whole life still sinking in the [D]water
I [C]need a ship not your sweet lip to[A]night
Solo
[----]Play over chords for one verse, then the chords for the bridge
You might think you're gonna cry
It will be alright, step out tonight
You might think you're gonna cry
It will be alright, step out tonight
Oh yeah, if the chords for the intro/verses sound off, try the following
and let me know what you think!
B--7-----------------------------7----
G--7-----------------------------7----
D--7--5--5--5--5--5--5--5--5--5--7----
A--5--2--2--3--3--2--3--2--3--2--5----
E-------------------------------------

Questions, comments, corrections, requests to swede@email.unc.edu

Important: The song above is NOT stored on the Chordie server. The original song is hosted at www.guitaretab.com. Chordie works as a search engine and provides on-the-fly formatting. Chordie does not index songs against artists'/composers' will. To remove this song please click here.

Text color:
Chord color:
Chord grids: 
Font size:    
Page size: 

A B5 C C5 D D2 Dsus2 E Em G
variations - click chord images

Login - add to songbook

Transpose chords

Tuning

Rating click stars to rate

Layout
Accuracy

SHARE PAGE  




You need to log in to post comments