Guitar Tabs, Chords and Lyrics


Whats The Story  Oasis

e ---------------


B ---------------


G --777h9b-------	x8


D --------------- 


A ---------------


E ---------------

     [E5]               [D5]                                                                               
e -------------------------
B -------------------3-----
G -------------------2-----
D ---2--2---------0--0-----
A ---2--2-------0----0-----
E ---0--------3------------

Lyrics kick in:
[E5]All your dreams are ma[D5]de
When you're c[E5]hained to the mirror and the [D5]razor blade
To[E5]day's the day that [D5]all the world will [A5]see[C5]
[E5]Another sunny aftern[D5]oon
[E5]Walking to the sound of my favou[D5]rite tune
To[E5]morrow never knows what it do[D5]esn't know too so[A5]on[C5]
[D5]Need a little time to wa[C5]ke up
[D5]Need a little time to wa[C5]ke up wake up
[D5]Need a little time to wa[C5]ke up
[D5]Need a little time to rest your mind
[B5]You know you should so I guess you might as [E5]well[D5]
[A5]What's the story [D5]morning glory
[E5]Well?[D5]
You [A5]need a little[D5] time to wake up, wake up
[E5]Well?[D5]
[A5]What's the story [D5]morning glory
[E5]Well?[D5]
[A5]Need a little tim[D5]e to wake up, wake up
SOLO (it's only with three strings, so I only used them):
p= pick off
b= bend 1/2
bf= bend full
()= double digit number
e --8p7-----------------------------------------------(10)----------------
B --------(10)-8--(10)--8-----------8-(10)--8--(10)bf------(10)-8-(10)-8--
G ------------------------9b-9-7-9----------------------------------------
e ----------------------------------8p7-----------------------------------
B -(10)-8----8-(10)--8--(10)--8---------(10)-8-(10)-8-(10)-8--------------
G ----------9-------------------------------------------------------------
e -----------------------------(10)-------(10)--------(10)----------------
B ----------8-(10)---8--(10)bf------(10)b------(10)bf---------------------
G -9b--7--9---------------------------------------------------------------

Just keep alternating that half bend whole bend with the 10 licks
alternating.
Since I did that solo, you can apply to chords to the rest of the song.
You know how it goes. Be sure to end with random TV noise and ocean
sounds. Comment, questions, suggestions, welcome. Address to:
Justin Kunz
kunjust@lyco.lycoming.edu

Important: The song above is NOT stored on the Chordie server. The original song is hosted at www.guitaretab.com. Chordie works as a search engine and provides on-the-fly formatting. Chordie does not index songs against artists'/composers' will. To remove this song please click here.

Text color:
Chord color:
Chord grids: 
Font size:    
Page size: 

A5 B5 C5 D5 E5
variations - click chord images

Login - add to songbook

Transpose chords

Tuning

Rating click stars to rate

Layout
Accuracy

SHARE PAGE  




You need to log in to post comments