Guitar Tabs, Chords and Lyrics


Where Did It All Go Wrong  Oasis

[Em7]You know that feeling you ge[Dsus2]t,_________
[Em7]You feel your older than tim[D]e._[Dsus2]________
[Cadd9]You aint exactly su[Dsus2]re______ if you've been away a w[Em7]hile.____[D]___   [Dsus2]

Verse 2

[Em7]Do you keep the receipts[D]________[Dsus2]
[Em7]For the friends that you[D] buy?___[Dsus2]___
[Cadd9]And ain't it bitter sweet[Dsus2],______ you were only just getting[A7sus4] by.      [Cadd9]

Chorus

But I[Em7] hope you know_____ that it won't let go,
It sticks[Dsus2] around with you until the day you[Asus4] die.________
And I h[Em7]ope you know_____ that it's touch and go,
I hope the tea[Dsus2]rs don't stain the world that waits outside.
[Asus4]Where did it all go_[C]_ wrong?___________

Em7 Dsus2 x 2

Verse 3

[Em7]And until you've repaid[Dsus2]________
[Em7]the dreams you bought for your lies[Dsus2],_____
[Cadd9]you'll be castaway_[Dsus2]___ alone under stormy [Asus4]skies,_____
[Cadd9]alone under stormy [Asus4]skies.____    [Cadd9]

Chorus

But I[Em7] hope you know_____ that it won't let go,
It sticks[Dsus2] around with you until the day you[Asus4] die.________
And I h[Em7]ope you know_____ that it's touch and go,
I hope the tea[Dsus2]rs don't stain the world that waits outside.
[Asus4]Where did it all go_[C]_ wrong?___________

Solo
[Cadd9]             [G]         [D]           [Em]             [Cadd9]                                                
---------------------|----------------14-----|-----------------------|

---------------------|-----------------------|-----------------------|
---------------------|-----------------------|-----------------------|

[D]           [Em]           [Cadd9]            [G]            [D]            [Em]              
--15b-------12v------|-----------------------|----------------------|

---------------------|-15b-------12----------|-7h8p7----------------|
---------------------|-----------------------|--------9p7---7h9-----|
---------------------|-----------------------|------------9---------|
---------------------|-----------------------|----------------------|
---------------------|-----------------------|----------------------|

[Cadd9]                                 [B]                                      
-------------------------------|------0-----------------------|

-------------------------------|------------------------------|
-------------0-0--2b--0---0-2-0|-2b-------2b-p---0------------|
----0-----0-------------2------|-------------------2p0--------|
--2----2-----------------------|-----------------------2p0----|
-------------------------------|----------------------------3b|
Outro

But I[Em7] hope you know_____ that it won't let go,
It sticks[Dsus2] around with you until the day you[Asus4] die.________
And I h[Em7]ope you know_____ that it's touch and go,
I hope the tea[Dsus2]rs don't stain the world that waits outside.

But [Em7]I hope you know_____ that it won't let go,
It sticks[Dsus2] around with you until the day you[Asus4] die.________
And I h[Em7]ope you know_____ that it's touch and go,
I hope the tea[Dsus2]rs don't stain the world that waits outside.
[Asus4]Where did it all go_[Cadd9]_ wrong?___________
Thats it, simple but genius,

enjoy,
Stu

Important: The song above is NOT stored on the Chordie server. The original song is hosted at www.guitaretab.com. Chordie works as a search engine and provides on-the-fly formatting. Chordie does not index songs against artists'/composers' will. To remove this song please click here.

Text color:
Chord color:
Chord grids: 
Font size:    
Page size: 

A7sus4 Asus4 B C Cadd9 D Dsus2 Em Em7 G
variations - click chord images

Login - add to songbook

Transpose chords

Tuning

Rating click stars to rate

Layout
Accuracy

SHARE PAGE  




You need to log in to post comments