Chordie logo


Who Feels Love   Oasis



Oasis
Who Feels Love -
from the album Standing on The Shoulders of the Giants
by Noel Gallagher

Tabbed by Arthur Beernardo

I've been looking for a good tab to this song on the Internet and I didn't find
so I decided to make one myself
I think it's about 95% correct.

Cheers!


--------------------------

Tune: D G D G B d


1st chord |x 0 0 0 3 5
2nd chord |x 3 3 0 1 0
3rd chord |x 0 2 0 1 0
4th chord |x 5 5 0 3 0
5th chord |x 4 0 0 3 0


- Intro -

1st chord |x 0 0 0 3 5   4x


- 1st verse -


1st chord |x 0 0 0 3 5  ~>  This chord through all the verse.


Found what I've lost inside

d|-12------14~--9--10--12~--10--9--------|
B|-----12--------------------------------|
G|---------------------------------------|
D|---------------------------------------|
G|---------------------------------------|
D|---------------------------------------|


my spirit has been purified

d|------10~--9---------9--10--12~--10--9-|
B|--10----------10--8--------------------|
G|---------------------------------------|
D|---------------------------------------|
G|---------------------------------------|
D|---------------------------------------|


Take a thorn from my pride

d|-12------14~--9--10--12~--10--9~-------|
B|-----12--------------------------------|
G|---------------------------------------|
D|---------------------------------------|
G|---------------------------------------|
D|---------------------------------------|


and hand in hand we'll take a walk outside

d|------10~--9---------10--9-------------|
B|--10----------10--8---------10--8--8~--|
G|---------------------------------------|
D|---------------------------------------|
G|---------------------------------------|
D|---------------------------------------|

- Chorus -

2nd chord |x 3 3 0 1 0
3rd chord |x 0 2 0 1 0
4th chord |x 5 5 0 3 0
5th chord |x 4 0 0 3 0

2nd                                3rd
Thank you for the sun the one that shines on everyone
    4th          5th
Who feels love

    2nd                                3rd
Now there's a million years between my fantasies & fears
  1st
I feel love

- Bridge -


|x 0 0 0 3 5    4x


- 2nd verse -


1st chord |x 0 0 0 3 5  ~>  This chord through all the verse.


I'm leaving all that I see

d|-----12~------14~--9--10--12~--10--9----|
B|-12-------12----------------------------|
G|----------------------------------------|
D|----------------------------------------|
G|----------------------------------------|
D|----------------------------------------|


now all my emotions fill the air I breath

d|------10~--9-------------10~--9---------12~--10--9--|
B|--10----------10--10--8----------10--8--------------|
G|----------------------------------------------------|
D|----------------------------------------------------|
G|----------------------------------------------------|
D|----------------------------------------------------|


- Chorus -


2nd                             3rd
Now you understand that this is not the promised land
     4th       5th
They spoke of
        2nd                           3rd
There's nothing more to be if you can be the remedy
    1st
Who heals love

- Interlude -


Acoustic Guitar:


   2nd~    3rd~    4th~    5th~

d|-----0-------0-------0-------0-----|
B|---0---0---0---0---0---0---0---0---|
G|-----------------------------------|    5x
D|-5-------3-------2-------0---------|
G|-----------------------------------|
D|-----------------------------------|


[the eletric guitar can strum the chords when the bass notes ate played by the acoustic 
like showed above.
It gets a cool effect]


~


Acoustic Guitar ~> 1st chord

Eletric Guitar:

d|--------------------9--10--|
B|--------------6--8---------|
G|--0--4--5--7---------------|    3x
D|---------------------------|
G|---------------------------|
D|---------------------------|


d|--------------|
B|--------------|
G|--0--4--5--7--|     1x
D|--------------|
G|--------------|
D|--------------|

Acoustic Guitar ~> 1st Chord

Eletric Guitar: Solo

d|------------------------------|
B|-0~15--15b--15-15-15--13------|
G|--------------------------12--|  8x
D|------------------------------|
G|------------------------------|
D|------------------------------|

- Chorus -


[ Eletric Guitar keep doing the solo about 9x ]


    2nd                                3rd
ah, Thank you for the sun the one that shines on everyone
    4th          5th
Who feels love

    2nd                                3rd
Now there's a million years between my fantasies & fears
  1st
I feel love


(again)

    2nd                                3rd
oh, Thank you for the sun the one that shines on everyone
    4th          5th
Who feels love

    2nd                                3rd
Now there's a million years between my fantasies & fears
  1st
I feel love

- Ending -

Acoustic Guitar:


   2nd~    3rd~    4th~    5th~

d|-----0-------0-------0-------0-----|
B|---0---0---0---0---0---0---0---0---|
G|-----------------------------------|    2x
D|-5-------3-------2-------0---------|
G|-----------------------------------|
D|-----------------------------------|


Acoustic Guitar:

d|-----0-------0-------0-------0-----|
B|---0---0---0---0---0---0---0---0---|
G|-----------------------------------|    1x
D|-5-------3-------2-------0---------|
G|-----------------------------------|
D|-----------------------------------|


while the Eletric Guitar's doing that:

d|--------------------9--10--|
B|--------------6--8---------|
G|--0--4--5--7---------------|    1x
D|---------------------------|
G|---------------------------|
D|---------------------------|

[Here the song starts to fade out]


Acoustic Guitar:

d|-----0-------0-------0-------0-----|
B|---0---0---0---0---0---0---0---0---|
G|-----------------------------------|    6x
D|-5-------3-------2-------0---------|
G|-----------------------------------|
D|-----------------------------------|


Eletric Guitar:

d|--------------------9--10--|
B|--------------6--8---------|
G|--0--4--5--7---------------|    6x
D|---------------------------|
G|---------------------------|
D|---------------------------|




Important: The song above is NOT stored on the Chordie server. The original song is hosted at www.guitaretab.com. Chordie works as a search engine and provides on-the-fly formatting. Chordie does not index songs against artists/composers will. To remove this song please click here.

This song is displayed as text-only. Transposing and tuning is only available for chordpro-songs.

Login - add to songbook

Rating click stars to rate

Layout
Accuracy

SHARE PAGE  




You need to log in to post comments