Guitar Tabs, Chords and Lyrics


Strawberry Fields  Oasis

G     -3-2-0-0-3-3


Dm    -x-x-0-2-3-1


Dm7/C -x-3-0-2-1-1

Em -0-2-2-0-0-0
C/G -3-3-2-0-1-0
Cadd9 -0-3-2-0-3-3
Dsus4 -0-0-0-2-3-3
E -0-2-2-1-0-0
D -x-x-0-2-3-2
Dmaj7 -x-x-0-2-2-2
D7 -x-x-0-2-1-2
Em7 -0-2-0-0-0-0
   [G]Let me take you down 'cause I'm going [Dm]to Strawberry fields  [Dm7/C]
   [E]Nothing is real, and [C/G]nothing to get [E]hung about
   [C/G]Strawberry fields for[G]ever
Verse:
[D]Living is [Dmaj7]easy with [D7]eyes closed
[Em]Misunders[Em7]tanding all you [C/G]see
[Cadd9]It's getting [Dsus4]hard to be som[G]eone
But it all works [Em]out
[Cadd9]It doesn't [Dsus4]matter [Cadd9]much to [G]me


Repeat Chorus


e-10\9--------------------|
B------10/8/-5/3/2--------|
G------------------2-2----|
D-------------------------|
A-------------------------|
E-------------------------|



Verse:

[D]No one I [Dmaj7]think is [D7]in my tree
[Em]I mean it must be high or [C/G]low
[Cadd9]That is you c[Dsus4]an't, you know, tune [G]in
But it's all [Em]right
[Cadd9]That is I [Dsus4]think it's [Cadd9]not too [G]bad

Repeat Chorus


e-10\9---------------------|
B------10------------------|
G---------12-9/7/4---------|
D--------------------------|
A--------------------------|
E--------------------------|



[D]Always [Dmaj7]know, some[D7]times think it's me
[Em]But you know I know when it'[C/G]s a dream
[Cadd9]I think I kno[Dsus4]w I mean, ah yes  [G]
But it's all wr[Em]ong
[Cadd9]That is I [Dsu4]think I [Cadd9]disagre[G]e
Let me take you do[G]wn 'cause I[Dm]'m going to Strawberry fields  [Dm7/C]
[E]Nothing is real, and [C/G]nothing to get [Em7]hung about
[C/G]Strawberry fields fore[G]ver [Em7]
[C/G]Strawberry fields fore[G]ver [Em7]
[C/G]Strawberry fields forever
Solo / Outro: Dm| Em C/G| Cadd9 Dsus4 G|Em| Cadd9 Dsus4 Cadd9 G|


Solo / Outro
e-------------------------------------------------------------0-0-0-0--|
B—7/5/----3/2h3p2h3p2h3p2h3p2-2/14----------2h3p2h3p2h3p2h3p2-0-0-0-0--|
G----------------------------------2-2--2-2-------------------0-0-0-0--|
D------0---------------------------2-2--2-2-------------------2-2-2-2--|
A-----0-------------------------------------------------------0-0-0-0--|
E----------------------------------------------------------------------|
e-0-0-0-0--2-2--2------------------------------2--|
B-0-0-0-0--3-3--3----2h3p2h3p2h3p2h3p2h3p2h3p2-3--|
G-0-0-0-0--2-2--2------------------------------2--|
D-2-2-0-0-----------------------------------------|
A-0-0-2-2-----------------------------------------|
E-------------------------------------------------|


Thats it hope you all like it

Important: The song above is NOT stored on the Chordie server. The original song is hosted at www.guitaretab.com. Chordie works as a search engine and provides on-the-fly formatting. Chordie does not index songs against artists'/composers' will. To remove this song please click here.

Text color:
Chord color:
Chord grids: 
Font size:    
Page size: 

C/G Cadd9 D D7 Dm Dm7/C Dmaj7 Dsus4 E Em Em7 G
variations - click chord images

Login - add to songbook

Transpose chords

Tuning

Rating click stars to rate

Layout
Accuracy

SHARE PAGE  




You need to log in to post comments