Guitar Tabs, Chords and Lyrics


Stop Crying Your Heart Out  Oasis

e--0-----


B-----0--


G--------


D--------


	  e---------0-----


	  B------------0--


 	  G----7----------


 	  D---------------

Hold on...
	  e----------0-----
	  B-------------0--
 	  G----7-----------
 	  D-------9--------

Don't be scared...
	  	e----------0-----
	  	B-------------0--
 	  	G-------7--------
 	  	D----9-----------

You'll never change what's been and gone
	  				e----------0-----
					B-------------0--
 	  				G-------7--------
 	  				D----9-----------

Chorus
======
Cos all of the st[D]ars are fading [Asus4]away
Just try not to w[Em7]orry you'll see them so[G]meday
Take what you n[D]eed and be on your[Asus4] way
And stop crying your he[G]art out
2nd verse
=========
Get [Bmadd11]up (get up)
Come [Asus2]on (come on)
Why're you sc[E]ared? (I'm not scared)
You'll never change what's b[G]een and gone
Chorus
======
Cos all of the stars are fading away
Just try not to worry you'll see them someday
Take what you need and be on your way
And stop crying your heart out
Solo
====
(Just repeat this)
e--------0-----
B-----7-----7--
G--7-----------

Chorus
======
Cos all of the stars are fading away
Just try not to worry you'll see them someday
Take what you need and be on your way
And stop crying your h[Em7]eart out[G]
Stop crying your h[Em7]eart out[G]
Stop crying your h[Em7]eart out[G]
Stop crying your h[Em7]eart out[G]
(Solo again, ends on G)
Outro
=====
   [D]                  [Asus4]                  [Em7]                  [G]                       
e-----2-----0-----------------0-----------------0-----------------0--------
B--------3-----3-----------3-----3-----------------3-----------------3-----
G-----------------0-----------------2-----------------0-----------------0--
D--0--------------------2--------------------2-----------------0-----------
A--------------------0--------------------2-----------------2--------------
E--------------------------------------0-----------------3-----------------

[Dsus4]      [D]  [Dsus2]      [D]         [Asus4]                  [Em7]                  [G]                     
$1[D]20$
B--3--3---3---3--3-----------3-----3-----------------3-------------------3--------3--
G-------------------2-----------------2-----------------0-------------------0-----2--
D-------------------------2--------------------2-----------------0-------------0--0--
A----------------------0--------------------2-----------------2-----2----------------
E----------------------------------------0-----------------3-------------------------

Important: The song above is NOT stored on the Chordie server. The original song is hosted at www.guitaretab.com. Chordie works as a search engine and provides on-the-fly formatting. Chordie does not index songs against artists'/composers' will. To remove this song please click here.

Text color:
Chord color:
Chord grids: 
Font size:    
Page size: 

Asus2 Asus4 Bmadd11 D Dsus2 Dsus4 E Em7 G
variations - click chord images

Login - add to songbook

Transpose chords

Tuning

Rating click stars to rate

Layout
Accuracy

SHARE PAGE  




You need to log in to post comments