Guitar Tabs, Chords and Lyrics


Strange Thing  Oasis

              [1]                                                         
e|---------------------------------|
B|---------------------------------|
G|---------------------------------|
D|----9--9----------7--7-----------|
A|----9--9--9s11s9--7--7--7s9--9s7-|
E|----7--7----------5--5-----------|


                        [2]                                               
e|------------------------------------------------|
B|------------------------------------------------|
G|------------------------------------------------|
D|------------5--7^-5----------------5--7^-5------|
A|-----3s5-7-----------7------3s5-7-----------7---|
E|-3s5--------------------3s5---------------------|


[B5]Here lives a p[A5]ocket full of lives with no f[E5]uture
Take it for what it is, it’s only drunken lies
You should open up your mind, look to the future
You could be waiting for the ship that sails you home, I’m going home

Intro riff

[B5]What would you [A5]give me for the songs that I've b[E5]een singing
How could you ever say that you've got more than me?
Mick say's that he can never get no satifaction
These day's I think I know exactly what he means, What does he mean?

Solo: x2

e|--------------------------------------------|
B|-------11^12^11-----------------------------|
G|---12------------12--14--12--------12h14-12-|
D|-----------------------------12h14----------|
A|--------------------------------------------|
E|--------------------------------------------|
e|-----------------------------------------|
B|-11^12^11--------------------------------|
G|-----------12--14--12--------12h14-12----|
D|-----------------------12h14-------------|
A|-----------------------------------------|
E|-----------------------------------------|
e|---------------------------------|
B|-------12--------12--------12----|
G|---14--12----14--12----14--12----|
D|---------------------------------|
A|---------------------------------|
E|---------------------------------|



[B5]You won't get
[F#5]You don't get
[G5]What you need
[A5]Life is a strange thing
[B5]You won't get
[F#5]You don't get
[G5]What you need
[A5]Life is a strange thing [E5]now
E5 x3

Intro riff

[B5]Here lives a [A5]pocket full of lives with no[E5] future
Take it for what it is, it's only drunken lies
You should open up you mind, look to the future
You could be waiting for the ship that sails you home , I'm going home

Solo +
riff: x2

e|----------------------------------------------------------|
B|---18--18--18--18--18--18----11^12^11---------------------|
G|---------------------------------------12--14--12---------|
D|---------------------------------------------------12h14--|
A|----------------------------------------------------------|
E|----------------------------------------------------------|



[B5]You won't get
[F#5]You don't get
[G5]What you need
[A5]Life is a strange thing
[B5]You won't get
[F#5]You don't get
[G5]What you need
[A5]Life is a strange thing [E5]now
E5 x3

Intro riff

after the second time he plays the second part of the riff

Important: The song above is NOT stored on the Chordie server. The original song is hosted at www.guitaretab.com. Chordie works as a search engine and provides on-the-fly formatting. Chordie does not index songs against artists'/composers' will. To remove this song please click here.

Text color:
Chord color:
Chord grids: 
Font size:    
Page size: 

A5 B5 E5 F#5 G5
variations - click chord images

Login - add to songbook

Transpose chords

Tuning

Rating click stars to rate

Layout
Accuracy

SHARE PAGE  




You need to log in to post comments