Find The Arise

Obituary


From: "Alez666" Subject: TAB : Obituary - Find The Arise Date: Wednesday, May 16, 2001 3:12 PM
/ The following is the author's own interpretation of the song, to be used - / for studying or private use only, removal of any part of this ten line - / header is illegal!!! Removal of the transcribers name or anything - / relevant to the transcriber is also illegal, as so is the removal of the - / place inwhich the tab was downloaded. Publishing as well as printing of - / the tab is illegal without permission of the transcriber and copyright - / owner of the song. Failure to apply to these laws result will in legal - / action from the appropriate parties. -
OBITUARY - FIND THE ARISE From the Album CAUSE OF DEATH (1990) Copyright RoadRUNNER Records written by: --->Alez666<---(alez666@libero.it)
12 may 2001
NOTE: tune down your guitar a whole brutal step! (D,G,C,F,A,D) listen to the song to take the time
Riff 1
|------------------------------------| |------------------------------------| |------------------------------------| |------------------------------------| |--4----5--4--2------------5--4--2---| |--2----3--2--0--22222222--3--2--0---|
Riff 2
|----------------------------| |----------------------------| |----------------------------| |----------------------------| |----------------------------| |--22222222-3333-2222-0000---|
RIff 3
|-------------------------------------------| |-------------------------------------------| |-------------------------------------------| |--------------------2-3--------------------| |--2---------3\4-3---0-1---2--------3\4-3---| |--0--0-0-0--1\2-1---------0-0-0-0--1\2-1---|
RIff 4
|----------------------------|
|----------------------------| |----------------------------| |----------------------------| |----------------------------| |--44444444-3333-4444-5555---|
|----------| |----------| |----------| |----------|<-------end of riff 4 |--2-------| |--0-------|
RIff 5
|------------------------------------| |------------------------------------| |------------------------------------| |-------3--4-------------------------| |--2----1--2--3--4----3--4----3--2---| |--0----------1--2----1--2----1--0---|
Riff 6
|----------------------| |----------------------| |----------------------| |----------------3-4---| |------------4-3-1-2---| |--00000000--2-1-------|
|-----| |-----| |-----| |-----| |--4--|<----Riff 1 + end. |--2--|
End!
listen to the song for the structure...
LYRIC: ______________________________
Go - To Find the Arise Kill after sight
Fight - live through the hell war is a price twisting their minds kill after sight
______________________________
that's all guys....obituary rules this motherfucking world.... for any suggestions, insults or other, mail me at alez666@libero.it















variations - click chord images
Transpose chords:
Tuning:
Cool service:
View: Size:
A  A  A
Rating:
Layout:
  • Currently 0/5 Stars.
  • 1
  • 2
  • 3
  • 4
  • 5
 
Accuracy:
  • Currently 2.9/5 Stars.
  • 1
  • 2
  • 3
  • 4
  • 5
 
click stars to rate
Chordie recommends:
Learn to play this song & others via video guitar lessons at JamPlay.com
Songbook:
Login to add this song to your songbook
Support the artist
Preview/buy this song
MSN Music
Why this non-profit ad?

 
login to add comments/video/corrections