Guitar Tabs, Chords and Lyrics


Half Truism  Offspring

e|------------------12--------------------------------12--------------|


B|----------12--------------12----------------12--------------12------|


G|------12------12------12------12--------12------12------12------12--|

D|--14--------------------------------14------------------------------|
A|--------------------------------------------------------------------|
E|--------------------------------------------------------------------|
e|------------------12--------------------------------12--------------|
B|----------13--------------13----------------13--------------13------|
G|------12------12------12------12--------12------12------12------12--|
D|--14--------------------------------14------------------------------|
A|--------------------------------------------------------------------|
E|--------------------------------------------------------------------|
e|----------10------14------10----------------10------14------10------|
B|------10------10------10------10--------10------10------10------10--|
G|--------------------------------------------------------------------|
D|--12--------------------------------12------------------------------|
A|--------------------------------------------------------------------|
E|--------------------------------------------------------------------|
e|--------------------------------------------------------------------|
B|--------------------------------------------------------------------|
G|-9-9-9-9---9-9-9-9---9-9-7-7---9-9-9-9---9-9-9-9---9-9-7-7----------|
D|-9-9-9-9---9-9-9-9---9-9-7-7---9-9-9-9---9-9-9-9---9-9-7-7----------|
A|-7-7-7-7---7-7-7-7---7-7-5-5---7-7-7-7---7-7-7-7---7-7-5-5----------|
E|--------------------------------------------------------------------|
[E5]One is for envy and one just for spite
The [C5]cuts in my heart, they show in your eyes
[G5]Don't make it better
The twisting knife turns all [D5]by itself, on to someone else
[E5]Your self-liberation will leave this behind
Beyond[C5] slings and arrows, bearing on our mind
Don[G5]'t make it better
Shake it off, it never [D5]mattered, anyway
[G5]If we don't make it a[D5]live
It's a hell of a [B5]good day to [E5]die.
All our [D5]light that shines [C5]strong
Only [D5]lasts for so [G5]long.
[G5]And it's ashes to ashes a[D5]gain
Should we even [B5]try to pre[E5]tend?
All our [D5]light that shines s[C5]trong
Only [D5]lasts for so [G5]long.
The [E5]banner you're waving is burning in red
It's [C5]blocking the sunlight, that shines overhead
[G5]You against the world
Diamonds and pearls, voices in[D5]side you churn, watch the city burn
Your [E5]own liberation will leave them behind
[C5]All the slings and arrows, bearing on your mind
[G5]Don't make it better
Break it 'cause it never [D5]mattered anyway
[G5]If we don't make it a[D5]live
It's a hell of a [B5]good day to [E5]die.
All our [D5]light that shines [C5]strong
Only [D5]lasts for so [G5]long.
[G5]And it's ashes to ashes a[D5]gain
Should we even [B5]try to pre[E5]tend?
All our [D5]light that shines s[C5]trong
Only [D5]lasts for so [E5]long.
(E5), C5, G5, D5

[E5]I w[C5]on't c[G5]ome d[D5]own

The[E5] banner you're waving
[C5]Is burning in red
[G5]You against the world, diamonds and pearls
It never [D5]mattered, mattered, mattered anyway
[G5]If we don't make it a[D5]live
It's a hell of a [B5]good day to [E5]die.
All our [D5]light that shines [C5]strong
Only [D5]lasts for so [G5]long.
[G5]And it's ashes to ashes a[D5]gain
Should we even [B5]try to pre[E5]tend?
All our [D5]light that shines s[C5]trong
Only [D5]lasts for so [E5]long.
All our [D5]light that shines s[C5]trong
Only [D5]lasts for so [G5]long.

Important: The song above is NOT stored on the Chordie server. The original song is hosted at www.guitaretab.com. Chordie works as a search engine and provides on-the-fly formatting. Chordie does not index songs against artists'/composers' will. To remove this song please click here.

Text color:
Chord color:
Chord grids: 
Font size:    
Page size: 

B5 C5 D5 E5 G5
variations - click chord images

Login - add to songbook

Transpose chords

Tuning

Rating click stars to rate

Layout
Accuracy

SHARE PAGE  




You need to log in to post comments