Guitar Tabs, Chords and Lyrics


Jennifer Lost The War   Offspring



I didn't tab this, i found it on another site, and its good, i left the original details 
for the original tabber






Song: Jennifer Lost the War
Artist: The Offspring
Album: The Offspring

Intro
e-----------------------------------------------0--0--0--0-|
B-----------------------------------------------0--0--0--0-|
G--9-9-9-9-9--7--6-6-6-6-6-6-6-6--7-7-7-7-7--6--4--4--4--4-|
D--x-x-x-x-x--x--x-x-x-x-x-x-x-x--x-x-x-x-x--x--2--2--2--2-|
A--7-7-7-7-7--5--4-4-4-4-4-4-4-4--5-5-5-5-5--4--2--2--2--2-|
E-----------------------------------------------0--0--0--0-|

Verse 1
e----------------------------------------------------------|
B----------------------------------------------------------|
G--------7--9--5--7----------------------------------------|
D--2--7--7--9--5--7--------4-------5-------4-------5-5p4-2-|
A--2--7--5--7--3--5--2m-2m---2m-2m---2m-2m---2m-2m---------|
E--0--5----------------------------------------------------|

Chorus
e----------------------------------------------------------|
B----------------------------------------------------------|
G---------------------7-7-7-7-7-9--9m-9m-9-9m-9m-9-9m-9m---|
D--7--7m-7m-7m-7m-7m--7-7-7-7-7-9--9m-9m-9-9m-9m-9-9m-9m---|
A--7--7m-7m-7m-7m-7m--5-5-5-5-5-7--7m-7m-7-7m-7m-7-7m-7m---|
E--5--5m-5m-5m-5m-5m---------------------------------------|

Fill (played half-way through Chorus)
e--8p5-----5---8p5-----5------------------------------------|
B------5h8---------5h8--------------------------------------|
G-----------------------------------------------------------|
D-----------------------------------------------------------|
A-----------------------------------------------------------|
E-----------------------------------------------------------|

Post-Chorus
e-----------------------------------------------------------|
B-----------------------------------------------------------|
G--7-----7---4----------------------------------------------|
D--7-----7---4----------------------------------------------|
A--5-----5---2----------------------------------------------|
E-----------------------------------------------------------|

Solo A (Guitar 1)
e----------------------------------------------------------|
B----------------------------------------------------------|
G------------------------------7--7-7-7-7-7--9--9-9-9-9-9--|
D--2--2-2-2-2-2--7--7-7-7-7-7--7--7-7-7-7-7--9--9-9-9-9-9--|
A--2--2-2-2-2-2--7--7-7-7-7-7--5--5-5-5-5-5--7--7-7-7-7-7--|
E--0--0-0-0-0-0--5--5-5-5-5-5------------------------------|

(continued)
e----------------------------------------------------------|
B----------------------------------------------------------|
G--12--12-12-12-12-12--11--11-11-11-11-11--9--9-9-9-9-9-9--|
D--12--12-12-12-12-12--11--11-11-11-11-11--9--9-9-9-9-9-9--|
A--10--10-10-10-10-10---9---9--9--9--9--9--7--7-7-7-7-7-7--|
E----------------------------------------------------------|

Solo B (Guitar 2)
e----------------------------------------------------------|
B----------------------------------------------------------|
G-------------------------12-------12^--12--------14-12----|
D-----------------12--14-----14-12---------14-12--------14-|
A-----10h12-14-12------------------------------------------|
E--12------------------------------------------------------|

(continued)
e-------17^--17-17-17p15-14-12^---12p10--------------------|
B---------------------------12^---------12-12p10-----------|
G--12^--------------------------------------------12p11p9--|
D--14^-----------------------------------------------------|
A----------------------------------------------------------|
E----------------------------------------------------------|

(continued)
e-----------------------------------------------------------|
B----------10-----------------------------------------------|
G--9----9-----12^-------------------------------------------|
D----12-------14^-------------------------------------------|
A-----------------------------------------------------------|
E-----------------------------------------------------------|

Verse 2
e----------------------------------------------------------|
B----------------------------------------------------------|
G-----------------------------------7--7m-7m-7m-7m-7m------|
D--2--2m-2m-2m-2m-2m--7--7-7-7-7-7--7--7m-7m-7m-7m-7m------|
A--2--2m-2m-2m-2m-2m--7--7-7-7-7-7--5--5m-5m-5m-5m-5m------|
E--0--0m-0m-0m-0m-0m--5--5-5-5-5-5-------------------------|

(continued)
e----------------------------------------------------------|
B----------------------------------------------------------|
G--9--9-9-9-9-9--5--5m-5m-5m-5m-5m--7--7-7-7-7-7-7---------|
D--9--9-9-9-9-9--5--5m-5m-5m-5m-5m--7--7-7-7-7-7-7---------|
A--7--7-7-7-7-7--3--3m-3m-3m-3m-3m--5--5-5-5-5-5-5---------|
E----------------------------------------------------------|

(continued)
e----------------------------------------------------------|
B----------------------------------------------------------|
G----------------------------------------------------------|
D--------4-------5-------4-------5-5p4-2-------------------|
A--2m-2m---2m-2m---2m-2m---2m-2m---------------------------|
E----------------------------------------------------------|

Riff A (Guitar 1)
e--------------------------10--9---------------------------|
B--------------------------10--9---------------------------|
G------9-----10-----9--------------------------------------|
D--7-7---7-7----7-7---7-7----------7--7m-7m-7m-7m--7-7-----|
A----------------------------------7--7m-7m-7m-7m--7-7-----|
E----------------------------------5--5m-5m-5m-5m--5-5-----|

(continued)              Riff B (Guitar 2, very slowly)
e------------------------|----------------------------------|
B------------------------|----------------------------------|
G------------------------|----------------------------------|
D--2--2m-2m-2m-2m--2-2---|----------------------------------|
A--2--2m-2m-2m-2m--2-2---|----------------------------------|
E--0--0m-0m-0m-0m--0-0---|--17------------------------------|

Bridge A (Guitar 1)
e----------------------------------------------------------|
B----------------------------------------------------------|
G---------------------------------7--6---------------------|
D--------4-------5-------4--------7--6---7-7--7m-7m-7m-7m--|
A--2m-2m---2m-2m---2m-2m---2m-2m--5--4---7-7--7m-7m-7m-7m--|
E----------------------------------------5-5--5m-5m-5m-5m--|

(continued)          Bridge B (Guitar 2)
e--------------------|--------------10^---12^--19^---------|
B--------------------|--------12^--------------------------|
G--------------------|--11^--------------------------------|
D--2-2--2m-2m-2m-2m--|-------------------------------------|
A--2-2--2m-2m-2m-2m--|-------------------------------------|
E--0-0--0m-0m-0m-0m--|-------------------------------------|


Intro
Verse 1
Chorus, Fill
Post-Chorus
Solo A, B
Verse 2
Chorus, Fill
Post-Chorus
Riff A, B
Bridge A
Bridge A, B
Chorus, Fill
Post-Chorus


Important: The song above is NOT stored on the Chordie server. The original song is hosted at www.guitaretab.com. Chordie works as a search engine and provides on-the-fly formatting. Chordie does not index songs against artists/composers will. To remove this song please click here.

This song is displayed as text-only. Transposing and tuning is only available for chordpro-songs.

Login - add to songbook

Rating click stars to rate

Layout
Accuracy

SHARE PAGE  




You need to log in to post comments