Guitar Tabs, Chords and Lyrics


Oc Life   Offspring



O.C Life - The Offspring


e|----------------------------------------|
b|----------------------------------------|
g|----6~----------------------------------|
d|----6~----------------------------------|
a|----4~----------------------------------|
e|----------------------------------------|

intro/chorus
repeat twice
e|----------------------------------------------------|
b|----------------------------------------------------|
g|----6-666-----9--11111111-9--7-------------7--------|
d|----6-666--6--9--11111111-9--7-7-9-999--4--7--------|
a|----4-444--6--7--9-9-9-9--7--5-7-9-999--4--5--------|
e|-----------4-------------------5-7-777--2-----------|

strumming not shown
e|----------------------------------------|
b|----------------------------------------|
g|----6--11-10----------------------------|
d|----x--x--x-----------------------------|
a|----4--9--8-----------------------------|
e|----------------------------------------|

verse
play it four times. twice is palm muted
e|----------------------------------------|
b|----------------------------------------|
g|----6666-999-888-444343-6666------------|
d|----6666-999-888-444343-6666------------|
a|----4444-777-666-222121-4444------------|
e|----------------------------------------|

intro/chorus
repeat twice
e|----------------------------------------------------|
b|----------------------------------------------------|
g|----6-666-----9--11111111-9--7-------------7--------|
d|----6-666--6--9--11111111-9--7-7-9-999--4--7--------|
a|----4-444--6--7--9-9-9-9--7--5-7-9-999--4--5--------|
e|-----------4-------------------5-7-777--2-----------|

guitar 1
solo
e|-----------------------------------------|
b|-----------------------------------------|
g|-----------------------------------------|
d|---9-11--(x8)-9h11p9-7h9p7-6---9-1-------|1(x5)
a|-----------------------------------------|
e|-----------------------------------------|

e|----------------------------------------------------12h14-|
b|--12-14--(x8)-12h14p12-10h12h10-9---12-14(x4)-12h14-------|
g|----------------------------------------------------------|
d|----------------------------------------------------------|
a|----------------------------------------------------------|
e|----------------------------------------------------------|

guitar 2 strumming not shown
e|-------------------------------------------|
b|-------------------------------------------|
g|----6-7---11-------------------------------|
d|----6-7-9-11-------------------------------|
a|----4-5-9-9--------------------------------|
e|--------7----------------------------------|


strumming not shown
e|----------------------------------------|
b|----------------------------------------|
g|----6--11-10----------------------------|
d|----x--x--x-----------------------------|
a|----4--9--8-----------------------------|
e|----------------------------------------|

then verse

then chorus

then solo again

outro
guitar 1 strumming not shown
e|---------------------------------------------|
b|---------------------------------------------|
g|----6--7--8--11-13-11------------------------|
d|----x--x--x--x--x--x-------------------------|
a|----4--5--6--9--11-9-------------------------|
e|---------------------------------------------|


guitar 2 strumming not shown
e|-------------------------------------------|
b|-------------------------------------------|
g|----6-7---11-------------------------------|
d|----6-7-9-11-------------------------------|
a|----4-5-9-9--------------------------------|
e|--------5----------------------------------|

that's it, quiet an easy song


Important: The song above is NOT stored on the Chordie server. The original song is hosted at www.guitaretab.com. Chordie works as a search engine and provides on-the-fly formatting. Chordie does not index songs against artists/composers will. To remove this song please click here.

This song is displayed as text-only. Transposing and tuning is only available for chordpro-songs.

Login - add to songbook

Rating click stars to rate

Layout
Accuracy

SHARE PAGE  




You need to log in to post comments