Guitar Tabs, Chords and Lyrics


All I Want   Offspring



-------------------------------------------------------------------------------
			  ALL I WANT - The Offspring
-------------------------------------------------------------------------------
Tabbed by: ygokazuki
Email: ygokazuki@gmail.com

Tuning:  Standard (EADGBe)

Tempo: 180 BPM - Fast Rock

Performance Notes:  This is tabbed out for one guitar; 
both Dexter and Noodles play the exact same thing live.

Pre-Verse
e|-------------------------------------------|
B|-------------------------------------------|
G|-11-11-11-11-9-11-11-9-7-7-7-7-7-9-9-9-9-9-|
D|-11-11-11-11-9-11-11-9-7-7-7-7-7-9-9-9-9-9-|
A|--9--9--9--9-7--9--9-7-5-5-5-5-5-7-7-7-7-7-|
E|-------------------------------------------|

e|--------------------------------------|
B|---------------------------------10---|
G|-11-11-11-11-9-11-11-9-7-7-7-7-7--9-9-|
D|-11-11-11-11-9-11-11-9-7-7-7-7-7--7-9-|
A|--9--9--9--9-7--9--9-7-5-5-5-5-5----7-|
E|--------------------------------------|

Verse (x2) (When playing live, Noodles does a pickscrape over the bass solo)
e|--------------|------------------|-----------------------------|
B|--------------|------------------|------------------------10---|
G|--------------|-b--------s-------|--------------7-7-7-7-7-9--9-|
D|--------------|---a--------o-----|--------------7-7-7-7-7-7--9-|
A|-4-4-4-4-4-4:-|-----s--------l---|-4-4-4-4-4-4:-5-5-5-5-5----7-|
E|-2-2-2-2-0-2:-|-------s--------o-|-2-2-2-2-0-2:----------------|
pm X X X X X			     X X X X X X

Chorus (x4)
e|-----------------------------------------------------|
B|-----------------------------------------------------|
G|-11-11-11--11-11--7-7-7--7-7--------------9-9-9--9-9-|
D|-11-11-11--11-11--7-7-7--7-7--7-7-7--7-7--9-9-9--9-9-|
A|--9--9--9---9--9--5-5-5--5-5--7-7-7--7-7--7-7-7--7-7-|
E|------------------------------5-5-5--5-5-------------|

Repeat Pre-Verse, Verse (x2), and Chorus (x4)

Bridge
e|-------------------------------------|
B|-------------------------------------|
G|-7-7--7-9---11-11--9-9---7-7--7-9--9-|
D|-7-7--7-9---11-11--9-9---7-7--7-9--9-|
A|-5-5--5-7----9--9--7-7---5-5--5-7--7-|
E|-------------------------------------|
(When playing live, Noodles does a pickscrape  X 

Important: The song above is NOT stored on the Chordie server. The original song is hosted at www.guitaretab.com. Chordie works as a search engine and provides on-the-fly formatting. Chordie does not index songs against artists'/composers' will. To remove this song please click here.

This song is displayed as text-only. Transposing and tuning is only available for chordpro-songs.

Login - add to songbook

Rating click stars to rate

Layout
Accuracy

SHARE PAGE  




You need to log in to post comments