All Along

Offspring

 E5D5G5G#5A5C5G5
E-------------------------------------------------------------------------
B-------------------------------------------------------------------------
G--9--9---9--9-9-9--7-7-7---7--------------------------------/12-12-12----
D--9--9---9--9-9-9--7-7-7---7-5-5-5-6-7-7--7-7-7-7--7/10-10--/12-12-12----
A--7--7---7--7-7-7--5-5-5---5-5-5-5-6-7-7--7-7-7-7--7/10-10--/10-10-10----
E-----------------------------3-3-3-4-5-5--5-5-5-5--5/8--8----------------


VERSE (2x)
All palm muted
 E5D5
E----------------------------------
B----------------------------------
G----------------7--7777-777-------
D--2--2222-222---7--7777-777-------
A--2--2222-222---5--5555-555-------
E--0--0000-000---------------------


 A5C5G5
E----------------------------------
B----------------------------------
G----------------5--555------------
D--7--7777-777---5--555--5--555----
A--7--7777-777---3--333--5--555----
E--5--5555-555-----------3--333----


The last G5 before Chorus is an octave higher, like this
E----------------
B----------------
G--/12--12-12----
D--/12--12-12----
A--/10--10-10----
E----------------


CHORUS
E-----------------------------------------------
B-----------------------------------------------
G--9-9-9-9--7-7-7-7-------------------/12-12----
D--9-9-9-9--7-7-7-7--7-7-7-7--/10-10--/12-12----
A--7-7-7-7--5-5-5-5--7-7-7-7--/10-10--/10-10----
E--------------------5-5-5-5--/-8--8------------


INTERLUDE
 |--------------Palm Muted-------------|
E--------------------------------------------------------------
B--------------------------------------------------------------
G--------7-7---------5-5-------------7-7----------12-12-12\----
D--2-2---7-7---7-7---5-5-5-5---2-2---7-7---7\-----12-12-12\----
A--2-2---5-5---7-7---3-3-5-5---2-2---5-5---7\-----10-10-10\----
E--0-0---------5-5-------3-3---0-0---------5\------------------


ENDING
E---------------------
B---------------------
G-----------/12--9----
D--7---/10--/12--9----
A--7---/10--/10--7----
E--5---/8-------------


That's it, mail me to la_laker83@hotmail.com














A5 C5 D5 E5 G#5 G5
variations - click chord images
Transpose chords:
Tuning:
Cool service:
View: Size:
A  A  A
Rating:
Layout:
  • Currently 3.2/5 Stars.
  • 1
  • 2
  • 3
  • 4
  • 5
 
Accuracy:
  • Currently 3/5 Stars.
  • 1
  • 2
  • 3
  • 4
  • 5
 
click stars to rate
Chordie recommends:
Get acoustic guitar lessons and electric guitar lessons at JamPlay.com
Songbook:
Login to add this song to your songbook
Support the artist
Preview/buy this song
MSN Music
Why this non-profit ad?

 
login to add comments/video/corrections