Guitar Tabs, Chords and Lyrics


Oh Lately Its So Quiet   Ok Go



-------------------------------------------------------------------------------
	         OH LATELY IT'S SO QUIET(acoustic) - Ok Go
-------------------------------------------------------------------------------
Tabbed by:azimuth457
Email:azimuth457@gmail.com

Tuning: Standard (EADGBe)

video for this on youtube at: http://www.youtube.com/watch?v=tQZBhI8CNtw

I'm a little uncertain about the second guitar during the chorus,
so i didn't put it in
but i know he plays chords like D but higher
sort of like in the solo. 
so you can email me any corrections
for that or any other part.

Intro, Guitar 1:
e|-----------------------|
B|-----------------------|
G|-----------------------|
D|--9-9-9-9-9-9-9-9-9----|
A|--6-6-6-6-6-6-6-6/7----|
E|-----------------------|

Verse, Guitar 1:
e|------------------------------------------------|
B|------------------------------------------------|
G|------------------------------------------------|
D|--9-9-9-99--9-9-9-99---9--9--9--9-9--7-7-7-77---|
A|--7-7-7-77--6-6-6-66--11-11-11-1111--9-9-9-99---|
E|------------------------------------------------|
                        

Important: The song above is NOT stored on the Chordie server. The original song is hosted at www.guitaretab.com. Chordie works as a search engine and provides on-the-fly formatting. Chordie does not index songs against artists'/composers' will. To remove this song please click here.

This song is displayed as text-only. Transposing and tuning is only available for chordpro-songs.

Login - add to songbook

Rating click stars to rate

Layout
Accuracy

SHARE PAGE  




You need to log in to post comments