No Signs Of Life

Ok Go

 DEGA
e------------------|
B---7---0---3---5--|
G---7---1---4---6--|
D---7---2---5---7--|
A---5---2---5---7--|
E-------0---3---5--|

keep playing during verses

2nd guitar:
e-------------|-------------------------------------------------------------|
B-------------|------6-------------6--------------6---------10b-10b-10b-10b-|
G--5-5----5-5-|--5-7---7---7---5-7----7---7---5-7---7---7-------------------|
D-------------|-------------------------------------------------------------|
A-------------|-------------------------------------------------------------|
E-------------|-------------------------------------------------------------|


Chorus: Bass (no sign of life)

Interlude: (but I've got a hunch...)
 BF#GADA
e---------------------------|
B---3---2---3---5---7---5---|
G---3---3---4---6---7---6---|
D---3---4---5---7---7---7---|
A---2---4---5---7---5---7---|
E-------2---3---5-------5---|				































A B D E F# G
variations - click chord images
Transpose chords:
Tuning:
Cool service:
View: Size:
A  A  A
Rating:
Layout:
  • Currently 1/5 Stars.
  • 1
  • 2
  • 3
  • 4
  • 5
 
Accuracy:
  • Currently 2/5 Stars.
  • 1
  • 2
  • 3
  • 4
  • 5
 
click stars to rate
Chordie recommends:
Learn how to play guitar at JamPlay.com
Songbook:
Login to add this song to your songbook
Support the artist
Preview/buy this song
MSN Music
Why this non-profit ad?

 
login to add comments/video/corrections