Chordie logo

Jagged  Old 97\'s

e|--------0--0--0--------3---3--3--2--2--2--2--2--2--0--0--0--------------|


B|--0--0--0--0--0--------0---0--0--3--3--3--3--3--3--1--1--0--------------|


G|--0--0-----------0--0------------2--2--4--4--0--0--2--2-----------------|


D|--2--2-----------0--0------------0--0--0--0--0-----2--2-----------------|


A|--2--2-----------2--2------------------------------0--0-----2-----------|


E|--0--0-----------3--3---------------------------------------------------|






What remains of t[G]he day remains to [D]be seen
By the [Am]TV that we never turn [Em]on
Each other's en[G]ough I never had it so [D]rough
Ever since I been [Am]gone       [Em]
White noise [G]swells in my [D]head
Making me [Am]worry it's the summer time[Em]
But it's the dead of the [G]fall it's the dead of the [D]night
Hell yes I [Am]mind


CHORUS

[C]I would give [G]anything[D] not to feel so [C]jagged
I'd give [G]anything[D] not to feel so [C]jaggged
I'd give [G]anything[D] not to feel so [Am]jagged


1st SOLO (Play INTRO: Em G D Am)


I couldn't drink e[G]nough to make this make [D]sense
But I [Am]think I'm gonna give it a [Em]try
There's no settling [G]down there's only driving down-[D]state
So I [Am]drive


(REPEAT CHORUS)


2nd SOLO (Play INTRO: Em G D Am)


(REPEAT CHORUS)


OUTRO (Em D Em)

e|--------0--0--0--2--2--3--3--3--0--0--------------|
B|--0--0--0--0--0--3--3--3--3--3--3--0--------------|
G|--0--0-----------2--2--2--2--2--2--0--------------|
D|--2--2-----------0--0--0--0--0-----2--------------|
A|--2--2-----------------------------2--------------|
E|--0--0-----------------------------0--------------|				


Important: The song above is NOT stored on the Chordie server. The original song is hosted at www.guitaretab.com. Chordie works as a search engine and provides on-the-fly formatting. Chordie does not index songs against artists/composers will. To remove this song please click here.

Am C D Em G
variations - click chord images

Login - add to songbook

Transpose chords

Tuning

Rating click stars to rate

Layout
Accuracy

SHARE PAGE  



You need to log in to post comments