Guitar Tabs, Chords and Lyrics


Salome  Old 97\'s

e|-----------3--------------3--------------2--------------2------|


B|-----3-0-----3-0----3-0-----3-0----3-------3------3-------3----|


G|--0--------------0-------------------2-------2------2-------2--|

D|---------0--------------0-------0--------------0---------------|
A|---------------------------------------0--------------0--------|
E|---------------------------------------------------------------|
e|-----------0-------------------------0--------------2----------|
B|-----1-------1------1----------1-------1------3-------3--------|
G|-------2-------2------2----------0-------2------2-------2------|
D|----------2------------------------2-------0-------------------|
A|--0--------------0------0-2-3---------------------0------------|
E|---------------------------------------------------------------|
Salome,[D] uncross your heart.
[Am]I know what goes on inside, it's [C]over before it s[D]tarts.
[G]Well I'll stay all night,[D] I'll wait right here.
The [Am]full moon might work magic girl, but [C]I won't disapp[D]ear.
CHORUS

And I'm tired of making [G]friends, and I'm tired of making [C]time,
And I'm sick to death of [G]love, and I'm sick to death of [Am]trying.
And it's easier for [C]you, yeah it's easier for [G]you.           [Am]
And it's easier for [C]you, yeah it's easier for [G]you.

[Am]                         [C]            
Salome,[D] untie my hands.
[Am]Well I'll find another lady, and you'll [C]wreck another [D]man.
[G]It's over now,[D] yeah and so are we.
[Am]My blood's turned to dirt girl, you broke [C]every part of [D]me.
REPEAT CHORUS (final "G" transfers into SOLO)


SOLO (G D Am C D) x2


REPEAT CHORUS

And it's easier for [C]you, yeah it's easier for [G]you.

[Am]    [C]   [G]                                                               

Important: The song above is NOT stored on the Chordie server. The original song is hosted at www.guitaretab.com. Chordie works as a search engine and provides on-the-fly formatting. Chordie does not index songs against artists'/composers' will. To remove this song please click here.

Text color:
Chord color:
Chord grids: 
Font size:    
Page size: 

Am C D G
variations - click chord images

Login - add to songbook

Transpose chords

Tuning

Rating click stars to rate

Layout
Accuracy

SHARE PAGE  




You need to log in to post comments