I Honestly Love You

Olivia Newton

 BbF
  Maybe I hang around here a little more than I should
 AbEb
  We both know I got somewhere else to go
 BbC7
  But I got somethin' to tell you that I never thought I would
 EbBbCm7
  But I believe you really ought to know

 Eb
        I love you,  I honestly love you

Verse2:

 BbF
  You don't have to answer, I see it in your eyes
 AbEb
  Maybe, it was better left unsaid
 BbC7
  But this is pure and simple, and you must realize
 EbBbCm7
  That it's comin' from my heart and not my head  

 AbBb
        I love you,  I honestly love you

Bridge:

 EbFDm7Gm7
  I'm not trying to make you feel uncomfortable   
 Cm7F7Bb
  I'm not trying to make you anything at all
 Eb
     But this feeling doesn't come along ev'ry day
 F
  And you shouldn't blow the chance, when you got the chance to say

 F#7B
     I love you,  I love you, I honestly love you

Verse3:

 BF#
  If we both were born in another place and time
 AE
  This moment might be ending in a kiss
 BC#7
  But there you are with yours and here I am with mine
 EBC#m7
  So I guess we'll just be leaving it at this

 EBF#EB
        I love you,   I honestly love you,    I honestly love you

---------------------------------------------------------------------------


VERSION 2: (Rearranged one)

Chords used:

D A C G E7 or E7 Em7
 EbAbC#F7Fm7Bb
 e-2--0-0-3-0-----0--0---2----2---0--4-----2--3--1---3-----6--4--4--1--1---1-|
 B-3--2-1-3-0-----3--3---2----3---2--5-----2--3--3---4-----8--4--5--1--1---3-|
 G-2--2-0-0-1-----1--0---2----2---0--4-----3--3--1---3-----8--5--5--2--1---3-|
 D-0--2-2-0-0-----2--2---2----4---2--6-----2--5--3---1-----8--6--5--1--1---3-|
 A----0-3-2-2-----2--2---4----2---0--4-----4--5--1---------6--6--4--3--3---1-|
 E--------3-0-----0--0---2-----------------2--3---------------4-----1--1-----|


Intro:

  e-15----15--14----14--12----12--9--9---------------------------------------|
  B-----17--------15--------12------8---8--8--7--7--5--5---------------------|
  G---15--------14--------12-------9------9-----7-----4---6--6---------------|
  D--------------------------------------8-----7-----5------5---5--5--4--4---|
  A--------------------------------------------------------7------7-----5----|
  E--------------------------------------------------------------6-----5-----|
  e-------------------------|
  B----------------------7--|
  G----------------------7--|
  D-1--1-----------------7--|
  A---1---4---4-----1-4--5--|
  E--3-----0-3---0-3--------|


Verse1:

 DA
  Maybe I hang around here a little more than I should
 CG
  We both know I got somewhere else to go
 DE7
  But I got somethin' to tell you that I never thought I would
 GDEm7
  But I believe you really ought to know

 G
        I love you,  I honestly love you

Verse2:

 DA
  You don't have to answer, I see it in your eyes
 CG
  Maybe, it was better left unsaid
 DE7
  But this is pure and simple, and you must realize
 GDEm7
  That it's comin' from my heart and not my head  

 CD
        I love you,  I honestly love you

Bridge:

 GAF#m7Bm7
  I'm not trying to make you feel uncomfortable   
 Em7A7D
  I'm not trying to make you anything at all
 G
      But this feeling doesn't come along ev'ry day
 A
  And you shouldn't blow the chance, when you got the chance to say

 Bb7Eb
     I love you,  I love you, I honestly love you

Verse3:

 EbBb
  If we both were born in another place and time
 C#Ab
  This moment might be ending in a kiss
 EbF7
  But there you are with yours and here I am with mine
 AbEbFm7
  So I guess we'll just be leaving it at this

 AbEbBbAbEb
        I love you,   I honestly love you,     I honestly love you