Guitar Tabs, Chords and Lyrics


Angel Of The Morning  Olivia Newton

    [C]  [F]  [G]  [Dm]   [Dm7]                                                                      
  e-0-1-3-1--1--
  B-1-1-3-3--1--
  G-0-2-0-2--2--
  D-2-3-0-0--0--
  A-3-3-2-------
  E---1-3-------



Intro:

C F G F* G*
 e-0-----0--1-----1--3-----3--------1--3------
 B-1---1----1---1----3---3--------1------3----
 G---0--------2--------0--------2----------0--
 D----------------------------3---------------
 A-3------------------------------------------
 E----------1--------3------------------------



Verse1:

  [C]There'll be no [F]strings to bind your [G]hands
F* G* C F G F* G*
Not if my love can't bind your heart
  [C]And there's no [F]need to take a [G]stand
F* G* C F G F G
For it was I who chose to start
  [Dm]I see no [Dm7]need to take me [G]home
  [Dm]I'm old e[Dm7]nough to face the [G]dawn [F]  [G]


Chorus1:

  [C]Just call me [F]angel of the [G]morning ([F]an - [G]gel)
  [C]Just touch my [F]cheek before you [G]leave me, [F]ba - [G]by
  [C]Just call me an[F]gel of the [G]morning ([F]an - [G]gel)
F Dm (e-/5-3-1-) C F G F* G*
Then slowly turn away from me-----


Verse2:

Maybe the sun's light will be dim
It won't matter any how (b-1--/13-)
If morning's echo says we've sinned
Well it was what I wanted now
And if we're victims of the night
I won't be blinded by the light


Chorus2:

  [C]Just call me [F]angel of the [G]morning ([F]an - [G]gel)
  [C]Just touch my [F]cheek before you [G]leave me, [F]ba - [G]by
  [C]Just call me an[F]gel of the [G]morning ([F]an - [G]gel)
F Dm (e-/5-3-1-/5-)
Then slowly turn away C
F Dm (g-0h5-0h5-0h7-7/9-)
I won't beg you to stay with me

   [C]                                       [F]                                         
 e-0--0-0-0----0-0-0---0--0---0---0---0---1--1--1---1--1--1---1--1---1-1--1-
 B-1--1-1-1----1-1-1---1--1---1---1---1---1--1--1---1--1--1---1--1---1-1--1-
 F-0--0-0-0----0-0-0---0--0---0---0---0---2--2--2---2--2--2---2--2---2-2--2-
 D------0--2-----0-2---2--2---2---0-----------------------------------------
 A-3--3--------3----------------------3---------0---------0---0--0---0------
 E----------------------------------------1--3------1--3---------------3--1-

-me, through the tears of the

   [C]                                       [F]                                         
 e-0--0-0-0----0-0-0---0--0---0---0---0---1--1--1---1--1-
 B-1--1-1-1----1-1-1---1--1---1---1---1---1--1--1---1--1-
 F-0--0-0-0----0-0-0---0--0---0---0---0---2--2--2---2--2-
 D------0--2-----0-2---2--2---2---0----------------------
 A-3--3--------3----------------------3---------0--------
 E----------------------------------------1--3------1--3- G     F    G

day of the years baby, ba - by


Chorus1

Outro: (same picking as intro)

C F G F* G*
Just call me angel of the morning (an - gel)
C F G F* G*
Just touch my cheek before you leave me, ba - by
C F G F* G*
Just call me angel of the morning (an - gel)
C F G F* G*
Just touch my cheek before you leave me, ba - by
....

Important: The song above is NOT stored on the Chordie server. The original song is hosted at www.guitaretab.com. Chordie works as a search engine and provides on-the-fly formatting. Chordie does not index songs against artists'/composers' will. To remove this song please click here.

Text color:
Chord color:
Chord grids: 
Font size:    
Page size: 

C Dm Dm7 F G
variations - click chord images

Login - add to songbook

Transpose chords

Tuning

Rating click stars to rate

Layout
Accuracy

SHARE PAGE  




You need to log in to post comments