Chordie logo


Meaning In The Static   On The Last Day



INTRO

GUITAR 1 [ x2 ]
e|------------------------------------|
b|------------------------------------|
g|--9--12--11-12-11-9-7-9-------------|
d|--x--xx--x--xx--x-x-x-x-------------|
a|--7--10--9--10--9-7-5-7-------------|
d|------------------------------------|

GUITAR 2 [ X2 ]
e|------------------------------------|
b|------------------------------------|
g|------------------------------------|
d|--2--5--0---------------------------|
a|--2--5--0---------------------------|
d|--2--5--0---------------------------|                             

VERSE 1

GUITAR 1 AND GUITAR 2 [ x4 ]
e|------------------------------------|
b|------------------------------------|
g|------------------------------------|
d|--2--5--7--9--0---------------------|
a|--2--5--7--9--0---------------------|
d|--2--5--7--9--0---------------------|

GUITAR 1 AFTER THE 1ST VERSE YOU PULL OFF
THE 2ND TIME YOU PLUM MUTE IT AND 3RD YOU
GO BACK TO THE 1ST VERSE

e|-------------------------------------|
b|-------------------------------------|
g|-------------------------------------|
d|--2454245-24542457-4579754575454242--|
a|-------------------------------------|
d|-------------------------------------|

CHORUS 1 SAME AS INTRO [ x2 ]

VERSE 2 [ x4 ]

CHORUS 2 [ x4 ]

BRIDGE

GUITAR 1 AND GUITAR 2
e|------------------------------------|
b|------------------------------------|
g|------------------------------------|
d|--2--0------------------------------|
a|--2--0------------------------------|
d|--2--0------------------------------|

GUITAR 1 LATER
e|-----12-----------------------------|
b|--16--------------------------------|
g|------------------------------------|
d|------------------------------------|
a|------------------------------------|
d|------------------------------------|

GUITAR 1 AND GUITAR 2 
e|-----------------------------------|
b|-----------------------------------|
g|-----------------------------------|
d|--2--------------------------------|
a|--2--------------------------------|
d|--2--------------------------------|

CHORUS [ x4 ]



Important: The song above is NOT stored on the Chordie server. The original song is hosted at www.guitaretab.com. Chordie works as a search engine and provides on-the-fly formatting. Chordie does not index songs against artists/composers will. To remove this song please click here.

This song is displayed as text-only. Transposing and tuning is only available for chordpro-songs.

Login - add to songbook

Rating click stars to rate

Layout
Accuracy

SHARE PAGE  




You need to log in to post comments