eToCache5 = ""; ?> All The Way by One Man Army - guitar chords, guitar tabs and lyrics - chordie

All The Way

One Man Army

 EE2EbBB2
 _______    _______    _______    _______    _______
e-------    -------    -------    -------    -------|
B-------    -------    -------    -------    -------|
G-------    ---9---    ---8---    ---4---    -------|
D---2---    ---9---    ---8---    ---4---    ---9---|
A---2---    ---7---    ---6---    ---2---    ---9---|
E---0---    -------    -------    -------    ---7---|


 AA2AbC#F#
 _______    _______    _______    _______    _______
e-------    -------    -------    -------    -------|
B-------    -------    -------    -------    -------|
G---2---    -------    -------    ---6---    -------|
D---2---    ---7---    ---6---    ---6---    ---4---|
A---0---    ---7---    ---6---    ---4---    ---4---|
E-------    ---5---    ---4---    -------    ---2---|


Intro riff:
e---------------------------------------------------|
B---------------------------------------------------|
G-8/9--8-9--8-9---12-13-11--------------------------|
D---------------------------------------------------|
A---------------------------------------------------|
E---------------------------------------------------|


Intro:
 EC#AB
Verse:
 E2Eb-C#B2-A2B2
Bridge:
 EAEAEAEBEAEBE
Bridge part 2:
 C#AbA2F#EAEB
Outro:
 EAEAEBEAE

Song Flow:
Intro x2 (bass and piano only)
Intro x2 (all)
Verse x2
Intro x2
Verse x2*
Bridge
Bridge part 2
Intro x4
Outro

*on second time hold B2 for transition into bridge

________
END


A A2 Ab B B2 C# E E2 Eb F#
variations - click chord images
Transpose chords:
Tuning:
Cool service:
View: Size:
A  A  A
Rating:
Layout:
  • Currently 1.3/5 Stars.
  • 1
  • 2
  • 3
  • 4
  • 5
 
Accuracy:
  • Currently 2.4/5 Stars.
  • 1
  • 2
  • 3
  • 4
  • 5
 
click stars to rate
Chordie recommends:
Get acoustic guitar lessons and electric guitar lessons at JamPlay.com
Songbook:
Login to add this song to your songbook
Support the artist
Preview/buy this song
MSN Music
Why this non-profit ad?

 
login to add comments/video/corrections