Chordie logo

Tapwater     Onesidezero



Artist- Onesidezero
Song- Tapwater
Tabber- Iconoclast

Verse               | Riff after intro
e|-------3----------|-------------------------------|
b|-3-0-0-3----------|-------------------------------|
g|-2-5-2-0----------|-------------------------------|
d|-0-4-5-0----------|-------------------------------|
a|-0-3-0------------|-0-0-0-10-0-0-9-0-0-10-0-0-2-3-|
D|-0----------------|-0-0-0-10-0-0-9-0-0-10-0-0-2-3-|

Between the verse and the prechorus it goes..
e|---------|
b|---------|
g|---------|
d|-2-2b(3)-|
a|---------|
D|---------|

Prechorus
e|-----------------------|
b|-----------------------|
g|-----------------------|
d|-----5p0---------------|
a|-0-0-----3-3-3-3/6-6-6-|
D|-0-0-----3-3-3-3/6-6-6-|

Chorus- Guitar 1
e|---------------------------------|
b|---------------------------------|
g|---------------------------------|
d|----7--------------5-5-7-7-7-----|
a|-5~---7~-7-8-7-7-8-----------8-7-|
D|---------------------------------|

Chorus- Guitar 2
e|-------------------------------------------3-3-3-3-3-3-3-|
b|-------------------------------------------3-3-3-3-3-3-3-|
g|---------------5-5-5-5-5-5-5-2-2-2-2-2-2-2-0-0-0-0-0-0-0-|
d|-0-0-0-0-0-0-0-5-5-5-5-5-5-5-2-2-2-2-2-2-2-0-0-0-0-0-0-0-|
a|-0-0-0-0-0-0-0-3-3-3-3-3-3-3-0-0-0-0-0-0-0---------------|
D|-0-0-0-0-0-0-0-------------------------------------------|

Bridge- Guitar 1 (just repeat this until this section of the bridge is over)
e|---------------------|
b|---------------------|
g|---------------------|
d|-3h5-5-5-3h5-5-5-3h5-|
a|---------------------|
D|---------------------|

Bridge- Guitar 2 (strumming not shown)
e|---------------------|
b|---------------------|
g|-----5---------------|
d|-3-1-5-5-6-----------|
a|-3-1-3-5-6-----------|
D|-3-1---5-6-----------|

Solo (couldnt really think of anything else to call it, its kinda a solo)
e|-----------/14-------|
b|---------------------|
g|---------------------|
d|-7-7/5-5-4-----------|
a|---------------------|



Important: The song above is NOT stored on the Chordie server. The original song is hosted at www.guitaretab.com. Chordie works as a search engine and provides on-the-fly formatting. Chordie does not index songs against artists/composers will. To remove this song please click here.

This song is displayed as text-only. Transposing and tuning is only available for chordpro-songs.

Rating click stars to rate

Layout
Accuracy

SHARE PAGE  

You need to log in to post comments