ADADAD
E|-0---2-----------------|
B|-2---3---2---3---------|
G|-2---2---2---2---2---2-|
D|---------2---0---2---0-|
A|-----------------0---0-|
E|-----------------------|


 E
E|---7---12-12-12-12-12-12--------------------------|
B|---9---12-12-12-12-12-12--------------------------|
G|---9---------------------14b15-15-15b14h12--------|
D|---9---------------------------------------14-----|
A|--------------------------------------------------|
E|--------------------------------------------------|


Chorus

Ska rhythm! Down-stokes are muted, and up-strokes
are played. If you don't know how to play Ska rhythm
right, then it's really hard to make this song sound
right, sorry.

 AAGGDDDD
E|X--5--X--5--X--3--X--3--|X--2--X--2--X--2--X--2--|
B|X--5--X--5--X--3--X--3--|X--3--X--3--X--3--X--3--|
G|X--6--X--6--X--4--X--4--|X--2--X--2--X--2--X--2--|
D|X--7--X--7--X--5--X--5--|X--4--X--4--X--4--X--4--|
A|------------------------|------------------------|
E|------------------------|------------------------|

Sound Systems gonna bring me back up yah

 AAGGDDDD
E|X--5--X--5--X--3--X--2--|X--2--X--2--X--2--X--2--|
B|X--5--X--5--X--3--X--3--|X--3--X--3--X--3--X--3--|
G|X--6--X--6--X--4--X--4--|X--2--X--2--X--2--X--2--|
D|X--7--X--7--X--5--X--5--|X--4--X--4--X--4--X--4--|
A|------------------------|------------------------|
E|------------------------|------------------------|

One thing that I can depend on

Repeat Chorus

Verse

More Ska!
 AAAAAAAA
E|X--5--X--5--X--5--X--5--|X--5--X--5--X--5--X--5--|
B|X--5--X--5--X--5--X--5--|X--5--X--5--X--5--X--5--|
G|X--6--X--6--X--6--X--6--|X--6--X--6--X--6--X--6--|
D|X--7--X--7--X--7--X--7--|X--7--X--7--X--7--X--7--|
A|------------------------|------------------------|
E|------------------------|------------------------|

Try to describe it to the limit of my ability

 GGGGGGGG
E|X--3--X--3--X--3--X--3--|X--3--X--3--X--3--X--3--|
B|X--3--X--3--X--3--X--3--|X--3--X--3--X--3--X--3--|
G|X--4--X--4--X--4--X--4--|X--4--X--4--X--4--X--4--|
D|X--5--X--5--X--5--X--5--|X--5--X--5--X--5--X--5--|
A|------------------------|------------------------|
E|------------------------|------------------------|

It's there for a second then it's given up what...

 DDDDDDDD
E|X--2--X--2--X--2--X--2--|X--2--X--2--X--2--X--2--|
B|X--3--X--3--X--3--X--3--|X--3--X--3--X--3--X--3--|
G|X--2--X--2--X--2--X--2--|X--2--X--2--X--2--X--2--|
D|X--4--X--4--X--4--X--4--|X--4--X--4--X--4--X--4--|
A|------------------------|------------------------|
E|------------------------|------------------------|

Contained in music somehow more than just sound,

 DDDDDDDD
E|X--2--X--2--X--2--X--2--|X--2--X--2--X--2--X--2--|
B|X--3--X--3--X--3--X--3--|X--3--X--3--X--3--X--3--|
G|X--2--X--2--X--2--X--2--|X--2--X--2--X--2--X--2--|
D|X--4--X--4--X--4--X--4--|X--4--X--4--X--4--X--4--|
A|------------------------|------------------------|
E|------------------------|------------------------|

This inspiration coming and twisting things around

Repeat

NOTE ON VERSE! : During the last part of the verse
when J says "twisting things around," the background
plays this

E|5--5--5--5--5--5--5--5--|
B|5--5--5--5--5--5--5--5--|
G|------------------------|
D|------------------------|
A|------------------------|
E|------------------------|


Pre-Bridge

No Guitar during the "Hup hup hup hup, picked it up,
picked it up, picked it up, picked it uuuuuuupppppp"
part, but then...

 AAAAAA
E|--0---------0-0---------|--0---------0-0---------|
B|--2---------2-2---------|--2---------2-2---------|
G|--2---------2-2---------|--2---------2-2---------|
D|--2---------2-2---------|--2---------2-2---------|
A|--0---------0-0---------|--0---------0-0---------|
E|------------------------|------------------------|

Sound! System! Sound! System!

Bridge

Regular chords this time, let A ring until you play
 D
 AD
E|--0---------------------|--------------------2---|
B|--2---------------------|--------------------3---|
G|--2---------------------|--------------------2---|
D|--2---------------------|--------------------0---|
A|--0---------------------|------------------------|
E|------------------------|------------------------|

Wake up turn my box on, bust the shade let the sun in

 AD
E|--0---------------------|--------------------2---|
B|--2---------------------|--------------------3---|
G|--2---------------------|--------------------2---|
D|--2---------------------|--------------------0---|
A|--0---------------------|------------------------|
E|------------------------|------------------------|

Times getting tougher 'bout time to start runnin'

 AD
E|--0---------------------|--------------------2---|
B|--2---------------------|--------------------3---|
G|--2---------------------|--------------------2---|
D|--2---------------------|--------------------0---|
A|--0---------------------|------------------------|
E|------------------------|------------------------|

Box in my hand, music by my side

 AAAAAAAADDDDDDDD
E|0--0--0--0--0--0--0--0--|2--2--2--2--2--2--2--2--|
B|2--2--2--2--2--2--2--2--|3--3--3--3--3--3--3--3--|
G|2--2--2--2--2--2--2--2--|2--2--2--2--2--2--2--2--|
D|2--2--2--2--2--2--2--2--|0--0--0--0--0--0--0--0--|
A|0--0--0--0--0--0--0--0--|------------------------|
E|------------------------|------------------------|

Skankin' to the rhythm of the music by my side!

In Between Last 2 choruses

This part is near the end of the song in between 2
choruses

 AAA
E|--0----------0----------|--0---------------------|
B|--2----------2----------|--2---------------------|
G|--2----------2----------|--2---------------------|
D|--2----------2----------|--2---------------------|
A|--0----------0----------|--0---------------------|
E|------------------------|------------------------|

Yehhhhh

Then at the end

 AAAAAA
E|--0---------0-0---------|--0---------0-0---------|
B|--2---------2-2---------|--2---------2-2---------|
G|--2---------2-2---------|--2---------2-2---------|
D|--2---------2-2---------|--2---------2-2---------|
A|--0---------0-0---------|--0---------0-0---------|
E|------------------------|------------------------|

(Sound) (System) (Sound) (System)
Sound! System! Sound! System!

Ends On A


A D E G
variations - click chord images
Transpose chords:
Tuning:
Cool service:
View: Size:
A  A  A
Rating:
Layout:
  • Currently 2.2/5 Stars.
  • 1
  • 2
  • 3
  • 4
  • 5
 
Accuracy:
  • Currently 2.4/5 Stars.
  • 1
  • 2
  • 3
  • 4
  • 5
 
click stars to rate
Chordie recommends:
Check out JamPlay.com for online video guitar lessons
Songbook:
Login to add this song to your songbook
Support the artist
Preview/buy this song
MSN Music
Why this non-profit ad?

 
login to add comments/video/corrections