Guitar Tabs, Chords and Lyrics


Hex Omega   Opeth



These are only the main parts of the song, excluding the solo endind part. Hope you enjoy... ;)
Standard

Dist.
|------------------------------------------------------|
|------------------------------------------------------|
|---9--------------------------------------------------|
|---9--------------------------------------------------|
|---7-------7---7h8p7-7----------5---5-7b8(7)~---------|
|---0---------0-------0----0-4-7---7-------------------|


Dist.
|--0-------------------------12------------------------|
|----0----------------------------12-------------------|
|------7------------------------9----9b10~-------------|
|--------6---------------------------------------------|
|-----------7--6h9p6-7-7-------------------------------|
|-----------0----------0-------------------------------|


Dist.
|------------------------------------------------------|
|------------------------------------------------------|
|---9--------------------------------------------------|
|---9--------------------------------------------------|
|---7-------7---7h8p7-7----------5---5-7b8(7)~---------|
|---0---------0-------0----0-4-7---7-------------------|


Dist.
|--0-------------------------12------------------------|
|----0----------------------------12-------------------|
|------7----9-------------------9----9b10~b9~~---------|
|--------6--9------------------------------------------|
|--------8--7--6h9p6-7-7-------------------------------|
|-----------0----------0-------------------------------|


Clean (I use the neck pickup)
|------------------------------------------------------|
|------------------------------------------------------|
|-----9--------------13-----------9--------------------|
|------------------------------------------------------|
|---7-------------11------------7----------------------|
|-0-------------0-------------0------------------------|


Clean
|---------------------------------------------------|
|---------------------------------------------------|
|------6\5--5\2-2/3---3---2-------------------------|
|---------------------------------------------------|
|---4   \3--3\------1---1---------------------------|
|-0-------------------------1-----------------------|


Dist.
 Ear the song
 to get the
 evolution
[PM

Important: The song above is NOT stored on the Chordie server. The original song is hosted at www.guitaretab.com. Chordie works as a search engine and provides on-the-fly formatting. Chordie does not index songs against artists'/composers' will. To remove this song please click here.

This song is displayed as text-only. Transposing and tuning is only available for chordpro-songs.

Login - add to songbook

Rating click stars to rate

Layout
Accuracy

SHARE PAGE  




You need to log in to post comments