Guitar Tabs, Chords and Lyrics


Demon   Opeth



Ok, I have seen many people tab Demon of the Fall, but noone gets
the end solo correct. So im settin it straight RIGHT NOW!!!

/=slide up
\=slide down
Gtr.1
|--------------------------------------------------------------------|
|-------------------------------/5-----------------------------------|
|----------------------------------5--7------------------------------|
|--------5/7--5--0-------5--7-------------/5--3-2--------------------|
|---------------------8----------------------------------------------|
|--------------------------------------------------------------------|

Gtr.2
|--------------------------------------------------------------------|
|--------------------------------------------------------------------|
|--------------------------------------------------------------------|
|------7-----7-----10-----10-----5-----5-----5-----5-----------------|
|----5-----5-----8------8------3-----3-----5-----5-------------------|


Important: The song above is NOT stored on the Chordie server. The original song is hosted at www.guitaretab.com. Chordie works as a search engine and provides on-the-fly formatting. Chordie does not index songs against artists'/composers' will. To remove this song please click here.

This song is displayed as text-only. Transposing and tuning is only available for chordpro-songs.

Login - add to songbook

Rating click stars to rate

Layout
Accuracy

Jango Player

SHARE PAGE  




You need to log in to post comments