Guitar Tabs, Chords and Lyrics


Heir Apparent   Opeth



-------------------------------------------------------------------------------
			     Heir Apparent - Opeth
-------------------------------------------------------------------------------
Tabbed by: BoggaN
Email: boggan@live.se

Only the tricky part. The other tabs of the first part of this solo is
correct, so I thought I´d only submit the tricky part, which is 100% correct!
I tabbed it out from the video on musicradar.com where they show how to play Heir apparent.

By the way, everything is 32nds in ~112bpm.

Tuning: Standard

e|-15h18p15-------------------------------12h15h18p15p12\9h12h15p12p9--------|
B|----------17---------------------------------------------------------------|
G|-------------18p15\12h15h18p15p12h15h18------------------------------------|
D|---------------------------------------------------------------------------|
A|---------------------------------------------------------------------------|
E|---------------------------------------------------------------------------|

e|---------------9h12h15p12p9------------------------------------------------|
B|--------------------------------------------------8h11h14p11p8-------------|
G|-15p12p9h12h15--------------15p12p9----------------------------------------|
D|------------------------------------14p11p8h11h14--------------------------|
A|---------------------------------------------------------------------------|
E|---------------------------------------------------------------------------|

e|---------------9h12h15p12p9------------------------------------------------|
B|---------------------------------------------------------------------------|
G|-15p12p9h12h15--------------15p12p9-12~------------------------------------|
D|---------------------------------------------------------------------------|
A|---------------------------------------------------------------------------|
E|---------------------------------------------------------------------------|


| /  slide up
| \  slide down
| h  hammer-on
| p  pull-off
| ~  vibrato
| +  harmonic
| x  Mute note


Important: The song above is NOT stored on the Chordie server. The original song is hosted at www.guitaretab.com. Chordie works as a search engine and provides on-the-fly formatting. Chordie does not index songs against artists'/composers' will. To remove this song please click here.

This song is displayed as text-only. Transposing and tuning is only available for chordpro-songs.

Login - add to songbook

Rating click stars to rate

Layout
Accuracy

SHARE PAGE  




You need to log in to post comments