"yes"; ?> Untitled by Oragic - guitar chords, guitar tabs and lyrics - chordie

Untitled

Oragic

--------

-----------------

 DGAD
E|2---------2-----3---------3-----|0---------0-----2---------2-----|
B|------3-------3-------0-------0-|------2-------2-------3---------|
G|----2-------2-------0-------0---|----2-------2-------2-----------|
D|0-------0---------------0-------|--------2-------0-------0-------|
A|--------------------------------|0---------------------------4---|
E|----------------3---------------|--------------------------------|


 BmADsus4D
E|----------------0---------0-----|3---------3-----2---------2-----|
B|3---------3-----------2-------2-|------3-------3-------3-------3-|
G|------4-------4-----2-------2---|----2-------2-------2-------2---|
D|----4-------4-----------2-------|0-------0-------0-------0-------|
A|2-------2-------0---------------|--------------------------------|
E|--------------------------------|--------------------------------|


CHORUS (Play Four Times = 1 Chorus)
------

 BmAGABmDA
E|--------------------------------|----------------2-------0-------|
B|3---------3-2---0---------0-2---|3---------3---------3-------2---|
G|------4---------------0---------|------4-------4-----------------|
D|----4---------------0-----------|----4-------4---0---------------|
A|2-------2---0---------------0---|2-------2---------------0-------|
E|----------------3-------3-------|--------------------------------|


LYRICS
------

None -- Instrumental!

PLAY MAP
--------

GUITAR 1: VVVCVCV
GUITAR 2: -VVCVCV

V = Verse
C = Chorus
- = Pause

Comments, suggestions, flames, money, record deals, women, jokes, and beer
will be gladly accepted! :)

Copyright (C) 1995 The Music of Honeywell's Kids. All rights reserved.








A Bm D Dsus4 G
variations - click chord images
Transpose chords:
Tuning:
Cool service:
View: Size:
A  A  A
Rating:
Layout:
  • Currently 2.3/5 Stars.
  • 1
  • 2
  • 3
  • 4
  • 5
 
Accuracy:
  • Currently 2.3/5 Stars.
  • 1
  • 2
  • 3
  • 4
  • 5
 
click stars to rate
Chordie recommends:
Learn how to play guitar at JamPlay.com
Songbook:
Login to add this song to your songbook
Support the artist
Preview/buy this song
MSN Music
Why this non-profit ad?

 
login to add comments/video/corrections