Guitar Tabs, Chords and Lyrics


Kailangan Kita   Orange and Lemons



KAILANGAN KITA by Orange and Lemons


INTRO:

guitar 1: G-C9-(8x)

guitar 2:

e|-------2-----------3---2----------|
B|---3-------3---1-----------3---3--|
G|-0---0---0---0---0---0---0---0----| 8x
D|----------------------------------|
A|----------------------------------|
E|----------------------------------|


VERSE:

guitar 1: G-C9

guitar 2:

e|-------2-----------3---2----------|
B|---3-------3---1-----------3---3--|
G|-0---0---0---0---0---0---0---0----|
D|----------------------------------|
A|----------------------------------|
E|----------------------------------|

REFRAIN: Am-Bm-C-Bm-Am-Bm-C-D


CHORUS: G-Am-Bm-C-;(2x) Am-Bm-C-Bm-Am-Bm-C-D


e|---------------8-7--------|
B|---------------8---8-8/10-|
G|---------------7----------|
D|--------------------------|
A|--------------------------|
E|--------------------------|


BRIDGE:

guitar 1: Em-A-(3x) Am-Bm-C-D

guitar 2:

e|--------------------------------------|
B|-------------------8----8-------8/10--|
G|---6h7-6---6h7-6----------6-7---------|
D|-7-------7-------7------------7-------|
A|--------------------------------------|
E|--------------------------------------|

e|-----------------------------------------------------------------|
B|-------------------8---------------------------------------------|
G|---6h7-6---6h7-6------55/7-7-7/9-9-9/11-11-11-7-7/9-9-9/11-11/12-|
D|-7-------7-------7-----------------------------------------------|
A|-----------------------------------------------------------------|
E|-----------------------------------------------------------------|


NITRAM
06-01-08


Important: The song above is NOT stored on the Chordie server. The original song is hosted at www.guitaretab.com. Chordie works as a search engine and provides on-the-fly formatting. Chordie does not index songs against artists/composers will. To remove this song please click here.

This song is displayed as text-only. Transposing and tuning is only available for chordpro-songs.

Login - add to songbook

Rating click stars to rate

Layout
Accuracy

SHARE PAGE  




You need to log in to post comments