Guitar Tabs, Chords and Lyrics


Amherst Pandemonium Part 2   Orchid



-------------------------------------------------------------------------------
	              Amherst Pandemonium Part 2 - ORCHID
-------------------------------------------------------------------------------

Tabbed by: dustin james chandler
Email: bearseekingbear@gmail.com

Tuning: Orchid plays a half step down from standard.



0:00-0:09
You all talk the same, calling out...

Eb-------------------------------------------------------------------------
Bb-------------------------------------------------------------------------
Gb--4-4-4-/--10/9-9---4-4-4-/--10/9-9---4-4-4-/--10/9-9---4-4-4-/--10/9-9--
Db--x-x-x-----x-x-x---0-0-0-----x-x-x---x-x-x-----x-x-x---x-x-x-----x-x-x--
Ab--2-2-2-/---8/7-7---2-2-2-/---8/7-7---2-2-2-/---8/7-7---2-2-2-/---8/7-7--
Eb--0-0-0-----0-0-0---0-0-0-----0-0-0---0-0-0-----0-0-0---0-0-0-----0-0-0-- 

Eb---------------------------------------]
Bb---------------------------------------]
Gb--5-5-5-5-5-5-/-12-12-12-11-11-11------]
Db--x-x-x-x-x-x----x--x--x--x--x--x------]
Ab--3-3-3-3-3-3-/-10-10-10--9--9--9------]
Eb--0-0-0-0-0-0----0--0--0--0--0--0------]  repeat this entire section 2x



0:09-0:15
the old guard is dead...

Eb------------------]
Bb------------------]
Gb--9--9----9--9----]
Db--x--x----x--x----]
Ab--7--7----7--7----]
Eb--0--0----0--0----] repeat 2x



0:16-0:28
regroup and strategize...

Eb-----------------------------------------------------------]
Bb-----------------------------------------------------------]
Gb--4-4-4-4-4-4-4-4-4---------5-5-5-5-5-5-7-7-7-7-/-5--------]
Db--x-x-x-x-x-x-x-x-x---------x-x-x-x-x-x-x-x-x-x---x--------]
Ab--2-2-2-2-2-2-2-2-2--0-0-0--3-3-3-3-3-3-5-5-5-5-/-3--0-0---]
Eb--0-0-0-0-0-0-0-0-0--0-0-0--0-0-0-0-0-0-0-0-0-0---0--0-0---] repeat 2x



0:29-0:41
regroup, regroup....

Eb---------------------------------------------------------------]
Bb---------------------------------------------------------------]
Gb--4-4-4-/-12-11---4-4-4-/-12-11---5-5-5-/-12--11---7-7-7-5-4---]
Db--x-x-x----x--x---x-x-x----x--x---x-x-x----x--x----x-x-x-x-x---]
Ab--2-2-2-/-10--9---2-2-2-/-10--9---3-3-3-/-10--9----5-5-5-3-2---]
Eb--0-0-0----0--0---0-0-0----0--0---0-0-0----0--0----0-0-0-0-0---] repeat 2x



[Lyrics]

You all talk the same,
Calling out.
You turned to facts,
Calling out,
"The old guard is dead!"
"The old guard is dead!"
"The old guard is dead; I've seen it with my own eyes!"
Regroup and strategize.


Important: The song above is NOT stored on the Chordie server. The original song is hosted at www.guitaretab.com. Chordie works as a search engine and provides on-the-fly formatting. Chordie does not index songs against artists/composers will. To remove this song please click here.

This song is displayed as text-only. Transposing and tuning is only available for chordpro-songs.

Login - add to songbook

Rating click stars to rate

Layout
Accuracy

SHARE PAGE  




You need to log in to post comments