""; ?> Shounen S by Ore Ska Band - guitar chords, guitar tabs and lyrics - chordie

Shounen S

Ore Ska Band

e--------------------------------|

B--------------------------------|
G-------7--9--9-9-------7--7-----|
D--7----7--9--9-9--7----7--7--7--|
A--7----5--7--7-7--7----5--5--7--|
E--5---------------5----------5--|
 ADEADA
e---------------------------------------------|
B---------------------------------------------|
G---------------------7-7-7-7-9-9-9-9---------|
D--7-7-7-7-7-7-7-7-7--7-7-7-7-9-9-9-9---------|
A--7-7-7-7-7-7-7-7-7--5-5-5-5-7-7-7-7---------|
E--5-5-5-5-5-5-5-5-5--------------------------|

 ADE
e------------------------------|
B------------------------------|
G-------------------7-7-7-7----|
D--7-7-7-7-7-7-7-7--7-7-7-7-7--|
A--7-7-7-7-7-7-7-7--5-5-5-5-7--|
E--5-5-5-5-5-5-5-5----------5--|

 ADA
Verse:

e--5-5-5-5-5-5-5-5-7-7-7-7-7-7-7-6--|
B--7-7-7-7-7-7-7-7-9-9-9-9-9-9-9-8--|
G--7-7-7-7-7-7-7-7-9-9-9-9-9-9-9-8--|
D--7-7-7-7-7-7-7-7-9-9-9-9-9-9-9-8--|
A--5-5-5-5-5-5-5-5-7-7-7-7-7-7-7-6--|
E-----------------------------------|

 DED#
Chorus:

e------------------------------------|
B------------------------------------|
G---------------------------7-7-9-9--|
D--7-7-7-7-7-7-7-7-7-7-7-7--7-7-9-9--|
A--7-7-7-7-7-7-7-7-7-7-7-7--5-5-7-7--|
E--5-5-5-5-5-5-5-5-5-5-5-5-----------|

 ADE
e--5-------/12--------|
B--5-------/12--------|
G--6-------/13--------|
D--7-------/14--------|
A--7-------/14--------|
E--5-------/12--------|

 AE
Bridge:

e-----------------------------------|
B-----------------------------------|
G-------------------------7-7--9-9--|
D--7-7----7-7----7-7------7-7--9-9--|
A--7-7----7-7----7-7------5-5--7-7--|
E--5-5----5-5----5-5----------------|

 ADE
e--5--x-x--5-5-x-5-x-5-x-5-5-5-x-5--|
B--5--x-x--5-5-x-5-x-5-x-5-5-5-x-5--|
G--6--x-x--6-6-x-6-x-6-x-6-6-6-x-6--|
D--------------------------------7--|
A--------------------------------7--|
E--------------------------------5--|

 AA
then the guitar drops out for a verse, and then...

Solo:

e--9---12--9---14---12-10-12--10-9-------------------|
B--10--10--10--15---14-12-14-------12-10-9-10-12-----|
G----------------------------------------------------|
D----------------------------------------------------|
A----------------------------------------------------|
E----------------------------------------------------|
e--9---12--9---14---12-10-12--10-9-------------------|
B--10--10--10--15---14-12-14-------12-10-10----------|
G----------------------------------------------------|
D----------------------------------------------------|
A----------------------------------------------------|
E----------------------------------------------------|
e--9-x-x-9--9-x-9-x-9-x-9--9--9--9--10-10-10-10-10-12--10-9--10--|
B--10x-x-10-10x-10x-10x-10-10-10-10-12-12-12-12-12-14--12-10-12--|
G----------------------------------------------------------------|
D----------------------------------------------------------------|
A----------------------------------------------------------------|
E----------------------------------------------------------------|
e--9--12-17---16-14-12--10-12-10-9-10-9-7-9-9----12--|
B----------------------------------------------------|
G----------------------------------------------------|
D----------------------------------------------------|
A----------------------------------------------------|
E----------------------------------------------------|


Then Verse + Chorus, and then a little breakdown in which Ikasu goes back
and forth from D and A, occasionally picking out notes here and there.

Breakdown:

e--5-----5------5--5-------5--5--5h7p5----5--5-------|
B--7--7----7----5-----5----7--7-----------5-----5----|
G--7---------7--6-------6--7-----------7--6-------6--|
D--7------------7----------7--------------7----------|
A--5------------7----------5--------------7----------|
E---------------5-------------------------5----------|

 DADA
e--5--5---------5--5-------5--5-----------7--7--7--7--7--|
B--7-------7----5----------7-----7--------9--9--9--9--9--|
G--7------------6----------7-------7------9--9--9--9--9--|
D--7------------7----------7---------7----9--9--9--9--9--|
A--5------------7----------5--------------7--7--7--7--7--|
E---------------5----------------------------------------|

 DADE
Then Chorus, and finally end by picking out an A

e-------5--|
B------5---|
G-----6----|
D----7-----|
A---7------|
E--5-------|


So Ore is almost done. I'll start on some other OSB songs soon, and when I do, they'll
to appear on UG as well. PM me on the forums or email me (ponchosplayhouse@gmail.com)
any questions, comments, complaints,
threats, etc.


A D D# E
variations - click chord images
Transpose chords:
Tuning:
Cool service:
View: Size:
A  A  A
Rating:
Layout:
  • Currently 3.1/5 Stars.
  • 1
  • 2
  • 3
  • 4
  • 5
 
Accuracy:
  • Currently 3.1/5 Stars.
  • 1
  • 2
  • 3
  • 4
  • 5
 
click stars to rate
Chordie recommends:
Learn to play guitar with video-based, online guitar lessons at JamPlay.com
Songbook:
Login to add this song to your songbook
Support the artist
Preview/buy this song
MSN Music
Why this non-profit ad?

 
login to add comments/video/corrections