Guitar Tabs, Chords and Lyrics


Spottieottiedopaliscious   Outkast



SONG NAME - Spottieottiedopaliscious
-------------------------------------------------------------------------------
Tabbed by:daveplayer#41
Email:JMorris@txstate.edu

Tuning:Standard

I would bet all my money that this is 100% correct

Intro & Verse (This part is just two chords)

e|----4------2------4-------------------------------------------------------|
B|----5------4------5-------------------------------------------------------|
G|----4------4------4-------------------------------------------------------|
D|----6------4------6-------------------------------------------------------|
A|----4------2------4-------------------------------------------------------|
E|----x------x------x-------------------------------------------------------|

Chorus: Two parts to this and they are almost identical (Part 1 is played and Part 2 is 
directly after it. As long as you play the chorus play Part 1 then Part 2)

Part 1

e|-7-7-4-7-4----4-4-4-4-4----4-4-4-4-4--------4-4-4-4---------4-------------|
B|-------------------------------------5--------------7-7-7-7---------------|
G|---------------------------------------6----------------------------------|
D|--------------------------------------------------------------------------|
A|--------------------------------------------------------------------------|
E|--------------------------------------------------------------------------|


e|-------------------------------4----7-4-7-4-7-4-------4-------------------|
B|---------5-5-5-5-7-7-7-7-7-7-7--------------------7-----------------------|
G|-6-6-6-6------------------------------------------------------------------|
D|--------------------------------------------------------------------------|
A|--------------------------------------------------------------------------|
E|--------------------------------------------------------------------------|

Part 2

e|-7-7-4-7-4----4-4-4-4-4----4-4-4-4-4--------4-4-4-4-----------------------|
B|-------------------------------------5--------------7-7-7-7-5-------------|
G|---------------------------------------6----------------------------------|
D|--------------------------------------------------------------------------|
A|--------------------------------------------------------------------------|
E|--------------------------------------------------------------------------|


e|-------------------------------4----7-4-7-4-7-4---------------------------|
B|---------5-5-5-5-7-7-7-7-7-7-7--------------------7---5-------------------|
G|-6-6-6-6------------------------------------------------------------------|
D|--------------------------------------------------------------------------|
A|--------------------------------------------------------------------------|
E|--------------------------------------------------------------------------|

I hope this helps everyone. Great song.

| /  slide up
| \  slide down
| h  hammer-on
| p  pull-off
| ~  vibrato
| +  harmonic
| x  Mute note


Important: The song above is NOT stored on the Chordie server. The original song is hosted at www.guitaretab.com. Chordie works as a search engine and provides on-the-fly formatting. Chordie does not index songs against artists/composers will. To remove this song please click here.

This song is displayed as text-only. Transposing and tuning is only available for chordpro-songs.

Login - add to songbook

Rating click stars to rate

Layout
Accuracy

SHARE PAGE  




You need to log in to post comments