Guitar Tabs, Chords and Lyrics


Time Wont Let Me  Outsiders



        [drum roll] 
2X; horns enter second time:

guitar 1:

         [A]v   v   v   v     v   v   v   v
	-----------------|-----------------|

(2)--2---0-2-0---|-----------0---3-|
---------------2-|-----2---2---2---|
-----------------|-----------------|
-----------------|-----------------|
-----------------|-----------------|

         [G]v   v   v   v     v   v   v   v
    -----------------|------------------|

-----3---2-3-2-0-|-----0-----0------|(2)
-----------------|---------2---2----|
-----------------|------------------|
-----------------|------------------|
-----------------|------------------|


guitar 2 (bass more or less doubles this):

         [A]v   v   v   v     v   v   v   v
	-----------------|-----------------|

-----------------|-----------------|
(2)--2---0-2-0---|---------------0-|
---------------4-|-----4---2-4-2---|
-----------------|-----------------|
-----------------|-----------------|

         [G]v   v   v   v     v   v   v   v
    -----------------|------------------|

-----------------|------------------|
-----0-----0-----|------------------|(2)
---------4---4-2-|-----2---0-2-0----|
-----------------|------------------|
-----------------|------------------|

Verse 1:

        [A]I can't w[G]ait fore[A]ver
        Even th[A]ough you w[G]ant me [A]to
        [A]I can't w[G]ait fore[A]ver
        [A]To know if y[G]ou'll be t[A]rue

Chorus:

        Time won't l[A]et me (oh, [F#m]no)
        Time won't l[A]et me (oh, [F#m]no)
                   Bm      C#m   D    E [N.C.]
Time won't let me...ee...ee...ee
        [1: Wait tbat long (repeat intro 1X; to Verse 2]
        [2: Wow! (to solo]
        [3: Wait tbat long (to coda]

Verse 2 (half-length):

Can't you see I've waited too long
To love you, to hold you in my arms

        [repeat cborus]

Solo (half-length verse plus last line of chorus):

       [Bm]     [C#m]     [D]     [E] [N.C.]
Ahhh...ahhh...ahhh...ah!

        [repeat verse 1]

        [repeat cborus]
Coda:

guitar 1:

         [A]v   v   v   v    [F#m] v   v   v   v
	-----------------|-----------------|

-2---2---0-2-0---|-----------0-----|
---------------2-|-----2---2---2---|
-----------------|-----------------|
-----------------|-----------------|
-----------------|-----------------|

guitar 2:

         [A]v   v   v   v    [F#m] v   v   v   v
	-----------------|-----------------|

-----------------|-----------------|
-2---2---0-2-0---|-----------------|
---------------4-|-----4---2-4-2---|
-----------------|-----------------|


        ...lo[A]ng   [F#m]     It won't let me wait that lo[A]ng
        (wait, wait, wait, w[F#m]ait that long)

Important: The song above is NOT stored on the Chordie server. The original song is hosted at www.guitaretab.com. Chordie works as a search engine and provides on-the-fly formatting. Chordie does not index songs against artists/composers will. To remove this song please click here.

Text color:
Chord color:
Chord grids: 
Font size:    
Page size: 

A Bm C#m D E F#m G
variations - click chord images

Login - add to songbook

Transpose chords

Tuning

Rating click stars to rate

Layout
Accuracy

SHARE PAGE  




You need to log in to post comments