Chordie logo

Ghost Of What Shouldve Been   Owen



Band:  Owen
Album: No Good For No One Now
Song:  The Ghost Of What Should've Been
Label: Polyvinyl Records

(c)2004
Version 1.0 - 03/25
Transcribed By: Christophe Schweitzer	
Email:          Kristoff@gmx.net


.  - palm mute           /  - slide up to
\  - slide down to       ~  - vibrato
h  - hammer on           b  - Bend
p  - pull off            Suffixes for bend
t  - tap                 f  - full bend    h - half bend
ph - pinched harmonic    q  - quarter bend t - tap bend
*  - see comment         ^  - Hold bend    r release bend
x  - Stuccatto           ~  - vibrato bend
,  - slight palm mute    () - ghost note, sustained note
"  - tremolo note         - Trill

Tuning E B E F# B D#
Capo on 5th!
(tab relative to capo so 0 = open string)


let ring 


Riff 1: Main Riff
|-------------------------------------|-------------------------------------|
|-------------------------------------|-------------------------------------|
|-------------------------0--0-0------|-------------------------0-----------|
|--------0----------------2--2-2------|--------0----------------2-----------|
|------4---4p0-----(2)----0--0-0------|------4---4p0-----(2)----0-----------|
|--0h2---------0---(0)-0--0--0-0------|--0h2---------0---(0)-0--0-----------|


Play 12x
13th time:
Guitar 1-> Riff 1
Guitar 2:
"Solo":


|---------------------------------------------------------------------------|
|---------------------------0*------/5--4--0------------0*---/4--2--0-------|
|---------------------5--4--5--0------------------5--4--5-------------------|
|--------------------x--------------/4--2--------x-----------/2--0--0-------|
|-------------------x----------------------4----x---------------------------|
|---------------------------------------------------------------------------|

Then Riff 1 again (8x)

until this riff played by guitar 1:


|----------0---------------------------------------------------------|
|----------0----------2p0--------------------------0-----------------|
|--------2----------------4p0------------------0---------------------|
|------2----------------------0--------------------------------------|
|----4--------------4-----------4-0--------2/4-------4\2-------------|
|--4----------0-2-4-----------------~2-----2-------------0-2---------|



|----------0-----------------------------------3---------------------|
|----------0-----------2p0-------------0-------0---------------------|
|--------2-----------------4p0-------0----0----4---------------------|
|------2-----------------------0----------0----0---------------------|
|----4--------------4------------4/5------0----4---------------------|
|--4----------0-2-4--------------------------------------------------|

|--------0---(0)--|		-------0-----0---0--0-0--------------|
|--2p0-2**p0-(0)--|		-2p0-2**2p0--0---0--0-0--------------|
|--0----------2---|4x, then	-0-----------2---2--2-2--------------|
|--2----------0---|		-2-----------0---0--0-0--------------|	4x

|--0----------0---|		-0-----------0---0--0-0--------------|
|-----------------|		-------------------------------------|


Riff 1+
Solo Electric Guitar

easy to figure out.
Tuning and Capo are 100% correct, got them from mike himself

END


Important: The song above is NOT stored on the Chordie server. The original song is hosted at www.guitaretab.com. Chordie works as a search engine and provides on-the-fly formatting. Chordie does not index songs against artists/composers will. To remove this song please click here.

This song is displayed as text-only. Transposing and tuning is only available for chordpro-songs.

Login - add to songbook

Rating click stars to rate

Layout
Accuracy

SHARE PAGE  



You need to log in to post comments