Chordie logo

Razors Blade   Oxymoron



                             OXYMORON
                           RAZORS BLADE

STANDARD TUNING
EADGBe


-------------------------------------------------------------|
-------------------------------------------------------------|
--5---5---5---10101010101010--5---5---5---10101010101010-----|
--5-5-5-5-5-5-10101010101010--5-5-5-5-5-5-10101010101010-----|
--3-5-3-5-3-5--8-8-8-8-8-8-8--3-5-3-5-3-5--8-8-8-8-8-8-8-----|
----3---3---3-------------------3---3---3--------------------|


-------------------------------------|
-------------------------------------|
--5-4-2---5-4-2---5-4-2-------2-4----|
--------5-------5-------5-3-5--------|x2
-------------------------------------|
-------------------------------------|


--------------------------------|
--------------------------------|
--10101010----------7-----------|
--10101010-10101010-7-----------|x4
---8-8-8-8-10101010-5-----------|
------------8-8-8-8-------------|


----------------------------------------------|
----------------------------------------------|
--4-5-7-5-4-----4-5-7-5-4-----4-5-7-5-4-------|
----------------------------------------------|
----------------------------------------------|
----------------------------------------------|


--------------------------------|
--------------------------------|
--10101010----------7-----------|
--10101010-10101010-7-----------|x4
---8-8-8-8-10101010-5-----------|
------------8-8-8-8-------------|


the song just repeats after that


Important: The song above is NOT stored on the Chordie server. The original song is hosted at www.guitaretab.com. Chordie works as a search engine and provides on-the-fly formatting. Chordie does not index songs against artists/composers will. To remove this song please click here.

This song is displayed as text-only. Transposing and tuning is only available for chordpro-songs.

Login - add to songbook

Rating click stars to rate

Layout
Accuracy

SHARE PAGE  

You need to log in to post comments