Walls

Pacifier

 Em/GCadd9GG/F#Bm
E|-3------3-----3---3-----2-------------
A|-3------3-----3---3-----3-------------
D|-0------0-----0---0-----4-------------
G|-2------2-----0---0-----4-------------
B|-2------3-----X---X-----2-------------
E|-0------------3---2-------------------


 Em/GCadd9GG/F#
 on your own today
lost with no direction
they took your dreams away
and stripped you of protection
but there's a light that won't burn out
 Cadd9
 when your heart is screaming out
is screaming

 BmCadd9
 it doesn't matter where you are
there is life behind that walls around you
it doesn't matter where you start
won't be long, won't be long until
the walls around you are gone

 Em/GCadd9GG/F#
 on my own again
with open invitations in the world i'm in
such a new sensation
but there's a light that won't burn out
if your heart begins to doubt

 GCadd9
 maybe a path to glory
it maybe a road to dust
it maybe there's one great story in all of us
in all of us, yeah

Guitar solo
-----------------------------------------------------
--/8\7-------------------------------/8\7------------
-------7~~~~~--5h7p5--/9 /7----------------7---5h7p5-
------------------------------/7--/5-----------------
-----------------------------------------------------
-----------------------------------------------------
-----------------------------
-----------------------------
----9/7--/14-14-12~~~~~~~~~~-
-----------------------------
-----------------------------
-----------------------------


 Em/GCadd9GG/F#
 on your own today
lost with no direction
they took your dreams away
and stripped you of protection
but there's a light that won't burn out
 Cadd9
 when your heart is screaming out
is screaming

it doesn't matter where you are
there is life behind that walls around you
it doesn't matter where you start
it won't be long, won't be long until
the walls around you are gone

(cos when the walls are closing in)
(another day begins)
(as the last flame flickers out)
cos there's something good in us (cos when the walls are closing in)
(another day begins)
(as the last flame flickers out)
cos there's something good in us (cos when the walls are closing in)
(another day begins)
there must be something beautiful in us cos there's something good in us (cos
when the walls are closing in)
(another day begins)
there must be something beautiful in us


Bm Cadd9 G G/F#
variations - click chord images
Transpose chords:
Tuning:
Cool service:
View: Size:
A  A  A
Rating:
Layout:
  • Currently 3/5 Stars.
  • 1
  • 2
  • 3
  • 4
  • 5
 
Accuracy:
  • Currently 3.1/5 Stars.
  • 1
  • 2
  • 3
  • 4
  • 5
 
click stars to rate
Chordie recommends:
Get acoustic guitar lessons and electric guitar lessons at JamPlay.com
Songbook:
Login to add this song to your songbook
Support the artist
Preview/buy this song
MSN Music
Why this non-profit ad?

 
login to add comments/video/corrections