Guitar Tabs, Chords and Lyrics


Pagan Altar   Pagan Altar



"Pagan Altar" - Pagan Altar (Volume 1)  http://www.paganaltar.co.uk

I was disappointed when I didn't see any Pagan Altar tabs on this site, so I went ahead 
tabbed one out. These guys are an excellent example of doom metal and are only exceeded 
the doom kings, Black Sabbath and Pentagram.

I didn't add any of the lead solos as a lot of them are improvised and it doesn't do 
good to tab them out. I did, however, include harmonizations where they're neccesary.

As always, listen to the record for the timing and the pattern of the riffs as I neither 
them to a time signature, nor included a sequence for the riffs!

Tuning: Standard (both guitars are distorted heavily)


Intro:

Guitar 1
e|--------------------------|
B|--------------------------|
G|--------------------------|
D|--2----2----2-------------|
A|--2----2----2----0-2-3-2--|
E|--0----0----0-------------|

Guitar 2(plays leads in addition to this, but I didn't tab them)
e|--12+---12+-----|
B|-----12+---12+--|
G|----------------|
D|----------------|
A|----------------|
E|----------------|

Verses:

Guitars 1&2
e|--------------------------|
B|--------------------------|
G|--------------------------|
D|--2----2----2-------------|

Important: The song above is NOT stored on the Chordie server. The original song is hosted at www.guitaretab.com. Chordie works as a search engine and provides on-the-fly formatting. Chordie does not index songs against artists'/composers' will. To remove this song please click here.

This song is displayed as text-only. Transposing and tuning is only available for chordpro-songs.

Login - add to songbook

Rating click stars to rate

Layout
Accuracy

SHARE PAGE  




You need to log in to post comments