Guitar Tabs, Chords and Lyrics


10 Lagartijos  Panda

|-------------------------------------|


|-------------------------------------|


|-------------------------------------|

|-3--3-3-3-3-3-3-3-3-3-3-3------------|
|-3--3-3-3-3-3-3-3-3-3-3-3------------|
|-1--1-1-1-1-1-1-1-1-1-1-1------------|
[F5]Yo tenia diez lagartijos, yo tenia diez lagartijos
[B#5]uno lo pise descalso no se mueve solo hay nuev[F5]e
[F5]de los nueve que quedaban, de los nueve que quedaban
[B#5]uno se embarro en un bocho ya nomas me quedan och[F5]o
[F5]de los ocho que aun vivian, de los ocho que aun vivian
a otro lo[B#5] partio un machete ya nomas me quedan si[F5]ete
(CORO)
|-------------------------------------|
|-------------------------------------|
|-------------------------------------|<---------|
|-3--3-3-3-3-3-3-3-X-3-X-3-X-3--------|          |
|-3--3-3-3-3-3-3-3-X-3-X-3-X-3--------|          |
|-1--1-1-1-1-1-1-1-X-1-X-1-X-1--------|          |

ey lagartijo,lagartijo ven acá |
X2
|-------------------------------------|          |
|-------------------------------------|          |
|-------------------------------------|          |
|-3--3-3-3-3-3-3-3-3-3-3-3------------|<---------|
|-3--3-3-3-3-3-3-3-3-3-3-3------------|
|-1--1-1-1-1-1-1-1-1-1-1-1------------|

ey lagartijo, lagartijo ven acá

[F5]De los siete que seguian, de los siete que seguian
[B#5]uno se fue a los states y nomas me quedaron s[F5]eis
[F5] a uno de los sies que habian, de los seis que aun quedaban
[B#5]lo aplasto un hornitorrinco ya nomas quedaron cin[F5]co
[F5]De los cinco desgraciados, transparetnes y rosados
[B#]uno quedo turulato ya nomas quedaron cuatro

(CORO)................................

[F5]de los cuatro lagartijos, de los cuatro lagartijos
[B#5]a uno lo mato el estres y nomas quedaron t[F5]res
[F5]a uno de los tres que habia, de los tres que me quedaban
[B#5]le baje le dije adios y nomas quedaron [F5]dos
[F5]de los dos sobrevivientes, uno de los dos corrientes
[B#5]me salio en el desayuno, ejjem !! ejjem !! ya nomas me falta [F5]uno

(CORO)..................................

[F5]ese mugre lagartijo, lagartijo tan canijo
no [B#5]se me muere con nada, eso esta de la pa[F5]tada!!!!!!!!!!!

heeoh !!


UN SALUDO A MIS COMPAS DE LA PREPA 1 EN TEPIC
AL ALDO,EL MOSCAR,EL EDDI
Y CLARO A MI CHIKITA JAZMIN"
TE KIERO MENDIGA CHAPARRA*

Important: The song above is NOT stored on the Chordie server. The original song is hosted at www.guitaretab.com. Chordie works as a search engine and provides on-the-fly formatting. Chordie does not index songs against artists'/composers' will. To remove this song please click here.

Text color:
Chord color:
Chord grids: 
Font size:    
Page size: 

F5
variations - click chord images

Login - add to songbook

Transpose chords

Tuning

Rating click stars to rate

Layout
Accuracy

SHARE PAGE  




You need to log in to post comments