Chordie logo


So Macabro So Violento   Panda



Artista: Panda. Album: Amantes Sunt Amentes. Año: 2006.

Esta es de las primeras canciones que saqué por que se parece en el coro a la de 
de NOFX, pero como sea, la verdad faltan algunas cosas, pero pues hay las sacan.

Se la dedico a mi querida amiga Jazmín R.I. ya se que para dedicártela debería 
pero no se me ha ocurrido nada.

Intro/Coro:
e|------------|
B|------------|
G|-4--8-------|
D|-4—-8--6--2-|
A|-2--6--6--2-|
E|-------4--0-|

Verso “Te voy a hablar con la verdad...”
e|--------------------|
B|--------------------|
G|--------------------|
D|-8/9--9/6-----------|
A|-8/9--9/6-----------|
E|-6/7--7/4-----------|

Esta parte no se como va pero se saca con el verso.

Coro:
e|----|---|---|-----|
B|----|---|---|-----|
A|--2-|-6-|-6-|-4-2-|
E|----|---|-4-|-2-0-|


Esta el la parte donde grita.
e|---|---------------|-----|
B|---|---------------|-----|
G|---|-4----44----44-|-4---|Acaba
D|—2-|-4-44-44-44-44-|-4---|aquí.>
A|-2-|-2-44-22-44-22-|-2---|
E|-0-|---22----22----|-----|
        

Kmara, Que se muera el ¡”$#% Conalep 1 de Aguascalientes, y todos los maricas faroles/punk.
Un saludo a la desintegrada banda “CHB”, “$# flaco deja de jugar fut y ponte a tocar.
Arriba el RocK Puro!!
Saquen las nuevas canciones de Qbo!!!

tenken_kun@hotmail.com
Erick Rosales Albo



Important: The song above is NOT stored on the Chordie server. The original song is hosted at www.guitaretab.com. Chordie works as a search engine and provides on-the-fly formatting. Chordie does not index songs against artists/composers will. To remove this song please click here.

This song is displayed as text-only. Transposing and tuning is only available for chordpro-songs.

Login - add to songbook

Rating click stars to rate

Layout
Accuracy

SHARE PAGE  




You need to log in to post comments