Shes A Handsome Woman

Panic At The Disco

 BbG#Ebsus2F#BbmC#sus2
|--6---4----6------2---1------4----|
|--6---4----6------2---2------4----|
|--7---5----8------3---3------6----|
|--8---6----8------4---3------6----|
|--8---6----6------x---1------4----|
|--6---4----x------x---x------x----|


________________________________________

Intro:

Q E E H Q E E H
|-----------------------------|
|-----------------------------|
|-3---3---3---2---------3-----|
|-1---4---1---1---4-3-2-1-----|
|-----------------------------|


Verse:
~
E Q Q E Q Q E Q E W E E Q
|-2---2--|--1------4--|--4---4--------------|
|-2---2--|--2------4--|--4---4-----4--------|
|-4---4--|--3------6--|--6---6---------4----|
|--------|--1------4--|--4---6--------------|
|--------|------------|------4--------------|


.............................................

 F#
 Innocence.
 BbmC#sus2
Sunk the glow and drowned in covers,
 C#sus2G#
send for all your absent lovers things.

 F#
 Sheepish Wolves.
 BbmC#sus2
Looking lived in eating buttons,
 C#sus2G#
Wink, just don't put your teeth on me.


 F#
 Accidents.
 BbmC#sus2
Let the evening in the backdoor,
 C#sus2G#
filled the room ceiling to the floor.

 F#
 Beat backbones.
 BbmC#sus2
Grazed the poem and made it strange,
 C#sus2G#
I wasn't born to be a skeleton.

.........................................

 Bb
 Go on,
 BbG#Ebsus2
 Go on, film the world before it happens.

.........................................

 F#
 Jealous orchard.
 BbmC#sus2
The sky is falling off the ceiling
 C#sus2G#
while I'm tucking fibs into a cookie jar.

 F#
 Reverie.
 BbmC#sus2
It's useless searching in the cupboards
 C#sus2G#
when everything you have is on your back.


Bb Bbm C#sus2 Ebsus2 F# G#
variations - click chord images
Transpose chords:
Tuning:
Cool service:
View: Size:
A  A  A
Rating:
Layout:
  • Currently 3.1/5 Stars.
  • 1
  • 2
  • 3
  • 4
  • 5
 
Accuracy:
  • Currently 2.9/5 Stars.
  • 1
  • 2
  • 3
  • 4
  • 5
 
click stars to rate
Chordie recommends:
Get acoustic guitar lessons and electric guitar lessons at JamPlay.com
Songbook:
Login to add this song to your songbook
Support the artist
Preview/buy this song
MSN Music
Why this non-profit ad?

 
login to add comments/video/corrections